  0
SECTION
  2
HEADER
  9
$ACADVER
  1
AC1014
  9
$ACADMAINTVER
 70
     9
  9
$DWGCODEPAGE
  3
ANSI_1252
  9
$INSBASE
 10
0.0
 20
0.0
 30
0.0
  9
$EXTMIN
 10
-0.3141911687299341
 20
0.0000000000000032
 30
0.0
  9
$EXTMAX
 10
169.685808831314
 20
512.5989799554003
 30
0.0
  9
$LIMMIN
 10
0.0
 20
0.0
  9
$LIMMAX
 10
420.0
 20
297.0
  9
$ORTHOMODE
 70
     1
  9
$REGENMODE
 70
     1
  9
$FILLMODE
 70
     1
  9
$QTEXTMODE
 70
     0
  9
$MIRRTEXT
 70
     1
  9
$DRAGMODE
 70
     2
  9
$LTSCALE
 40
1.0
  9
$OSMODE
 70
   511
  9
$ATTMODE
 70
     1
  9
$TEXTSIZE
 40
3.5
  9
$TRACEWID
 40
1.0
  9
$TEXTSTYLE
  7
STANDARD
  9
$CLAYER
  8
0
  9
$CELTYPE
  6
BYLAYER
  9
$CECOLOR
 62
   256
  9
$CELTSCALE
 40
1.0
  9
$DELOBJ
 70
     1
  9
$DISPSILH
 70
     0
  9
$DIMSCALE
 40
1.0
  9
$DIMASZ
 40
3.302
  9
$DIMEXO
 40
1.0
  9
$DIMDLI
 40
3.75
  9
$DIMRND
 40
0.0
  9
$DIMDLE
 40
0.0
  9
$DIMEXE
 40
1.0
  9
$DIMTP
 40
0.0
  9
$DIMTM
 40
0.0
  9
$DIMTXT
 40
3.5
  9
$DIMCEN
 40
2.5
  9
$DIMTSZ
 40
0.0
  9
$DIMTOL
 70
     0
  9
$DIMLIM
 70
     0
  9
$DIMTIH
 70
     1
  9
$DIMTOH
 70
     1
  9
$DIMSE1
 70
     0
  9
$DIMSE2
 70
     0
  9
$DIMTAD
 70
     1
  9
$DIMZIN
 70
     0
  9
$DIMBLK
  1

  9
$DIMASO
 70
     1
  9
$DIMSHO
 70
     1
  9
$DIMPOST
  1

  9
$DIMAPOST
  1

  9
$DIMALT
 70
     0
  9
$DIMALTD
 70
     3
  9
$DIMALTF
 40
0.0393700787
  9
$DIMLFAC
 40
1.0
  9
$DIMTOFL
 70
     1
  9
$DIMTVP
 40
0.0
  9
$DIMTIX
 70
     0
  9
$DIMSOXD
 70
     0
  9
$DIMSAH
 70
     0
  9
$DIMBLK1
  1

  9
$DIMBLK2
  1

  9
$DIMSTYLE
  2
ISO-25
  9
$DIMCLRD
 70
     0
  9
$DIMCLRE
 70
     0
  9
$DIMCLRT
 70
     0
  9
$DIMTFAC
 40
1.0
  9
$DIMGAP
 40
1.524
  9
$DIMJUST
 70
     0
  9
$DIMSD1
 70
     0
  9
$DIMSD2
 70
     0
  9
$DIMTOLJ
 70
     0
  9
$DIMTZIN
 70
     0
  9
$DIMALTZ
 70
     0
  9
$DIMALTTZ
 70
     0
  9
$DIMFIT
 70
     5
  9
$DIMUPT
 70
     0
  9
$DIMUNIT
 70
     2
  9
$DIMDEC
 70
     2
  9
$DIMTDEC
 70
     2
  9
$DIMALTU
 70
     2
  9
$DIMALTTD
 70
     3
  9
$DIMTXSTY
  7
STANDARD
  9
$DIMAUNIT
 70
     0
  9
$LUNITS
 70
     2
  9
$LUPREC
 70
     2
  9
$SKETCHINC
 40
1.0
  9
$FILLETRAD
 40
10.0
  9
$AUNITS
 70
     0
  9
$AUPREC
 70
     2
  9
$MENU
  1
.
  9
$ELEVATION
 40
0.0
  9
$PELEVATION
 40
0.0
  9
$THICKNESS
 40
0.0
  9
$LIMCHECK
 70
     0
  9
$CHAMFERA
 40
0.0
  9
$CHAMFERB
 40
0.0
  9
$CHAMFERC
 40
0.0
  9
$CHAMFERD
 40
0.0
  9
$SKPOLY
 70
     0
  9
$TDCREATE
 40
2456979.504866146
  9
$TDUPDATE
 40
2456979.512830729
  9
$TDINDWG
 40
0.0057502199
  9
$TDUSRTIMER
 40
2456979.470465035
  9
$USRTIMER
 70
     1
  9
$ANGBASE
 50
0.0
  9
$ANGDIR
 70
     0
  9
$PDMODE
 70
     0
  9
$PDSIZE
 40
-1.0
  9
$PLINEWID
 40
0.0
  9
$COORDS
 70
     1
  9
$SPLFRAME
 70
     0
  9
$SPLINETYPE
 70
     6
  9
$SPLINESEGS
 70
     8
  9
$ATTDIA
 70
     0
  9
$ATTREQ
 70
     1
  9
$HANDLING
 70
     1
  9
$HANDSEED
  5
1052
  9
$SURFTAB1
 70
     6
  9
$SURFTAB2
 70
     6
  9
$SURFTYPE
 70
     6
  9
$SURFU
 70
     6
  9
$SURFV
 70
     6
  9
$UCSNAME
  2

  9
$UCSORG
 10
0.0
 20
0.0
 30
0.0
  9
$UCSXDIR
 10
1.0
 20
0.0
 30
0.0
  9
$UCSYDIR
 10
0.0
 20
1.0
 30
0.0
  9
$PUCSNAME
  2

  9
$PUCSORG
 10
0.0
 20
0.0
 30
0.0
  9
$PUCSXDIR
 10
1.0
 20
0.0
 30
0.0
  9
$PUCSYDIR
 10
0.0
 20
1.0
 30
0.0
  9
$USERI1
 70
     0
  9
$USERI2
 70
     0
  9
$USERI3
 70
     0
  9
$USERI4
 70
     0
  9
$USERI5
 70
     0
  9
$USERR1
 40
0.0
  9
$USERR2
 40
0.0
  9
$USERR3
 40
0.0
  9
$USERR4
 40
0.0
  9
$USERR5
 40
0.0
  9
$WORLDVIEW
 70
     1
  9
$SHADEDGE
 70
     3
  9
$SHADEDIF
 70
    70
  9
$TILEMODE
 70
     1
  9
$MAXACTVP
 70
    64
  9
$PINSBASE
 10
0.0
 20
0.0
 30
0.0
  9
$PLIMCHECK
 70
     0
  9
$PEXTMIN
 10
1.000000000000000E+20
 20
1.000000000000000E+20
 30
1.000000000000000E+20
  9
$PEXTMAX
 10
-1.000000000000000E+20
 20
-1.000000000000000E+20
 30
-1.000000000000000E+20
  9
$PLIMMIN
 10
0.0
 20
0.0
  9
$PLIMMAX
 10
0.0
 20
0.0
  9
$UNITMODE
 70
     0
  9
$VISRETAIN
 70
     1
  9
$PLINEGEN
 70
     0
  9
$PSLTSCALE
 70
     1
  9
$TREEDEPTH
 70
  3020
  9
$PICKSTYLE
 70
     1
  9
$CMLSTYLE
  2
STANDARD
  9
$CMLJUST
 70
     0
  9
$CMLSCALE
 40
20.0
  9
$PROXYGRAPHICS
 70
     1
  9
$MEASUREMENT
 70
     1
  0
ENDSEC
  0
SECTION
  2
CLASSES
  0
CLASS
  1
ACDBDICTIONARYWDFLT
  2
AcDbDictionaryWithDefault
  3
ObjectDBX Classes
 90
        0
280
     0
281
     0
  0
CLASS
  1
VISUALSTYLE
  2
AcDbVisualStyle
  3
ObjectDBX Classes
 90
     4095
280
     0
281
     0
  0
CLASS
  1
MATERIAL
  2
AcDbMaterial
  3
ObjectDBX Classes
 90
     1153
280
     0
281
     0
  0
CLASS
  1
SCALE
  2
AcDbScale
  3
ObjectDBX Classes
 90
     1153
280
     0
281
     0
  0
CLASS
  1
SUN
  2
AcDbSun
  3
SCENEOE
 90
     1153
280
     0
281
     0
  0
CLASS
  1
XRECORD
  2
AcDbXrecord
  3
ObjectDBX Classes
 90
        0
280
     0
281
     0
  0
CLASS
  1
LWPOLYLINE
  2
AcDbPolyline
  3
ObjectDBX Classes
 90
        0
280
     0
281
     1
  0
CLASS
  1
HATCH
  2
AcDbHatch
  3
ObjectDBX Classes
 90
        0
280
     0
281
     1
  0
CLASS
  1
TABLESTYLE
  2
AcDbTableStyle
  3
ObjectDBX Classes
 90
     4095
280
     0
281
     0
  0
CLASS
  1
RASTERVARIABLES
  2
AcDbRasterVariables
  3
ISM
 90
        0
280
     0
281
     0
  0
ENDSEC
  0
SECTION
  2
TABLES
  0
TABLE
  2
VPORT
  5
8
330
0
100
AcDbSymbolTable
 70
     1
  0
VPORT
  5
29
330
8
100
AcDbSymbolTableRecord
100
AcDbViewportTableRecord
  2
*ACTIVE
 70
     0
 10
0.0
 20
0.0
 11
1.0
 21
1.0
 12
84.68580883129202
 22
256.2994899777001
 13
0.0
 23
0.0
 14
10.0
 24
10.0
 15
10.0
 25
10.0
 16
0.0
 26
0.0
 36
1.0
 17
0.0
 27
0.0
 37
0.0
 40
522.8509595545083
 41
2.047448522829006
 42
50.0
 43
0.0
 44
0.0
 50
0.0
 51
0.0
 71
    16
 72
  2000
 73
     1
 74
     2
 75
     0
 76
     0
 77
     0
 78
     0
  0
ENDTAB
  0
TABLE
  2
LTYPE
  5
5
330
0
100
AcDbSymbolTable
 70
     6
  0
LTYPE
  5
14
330
5
100
AcDbSymbolTableRecord
100
AcDbLinetypeTableRecord
  2
BYBLOCK
 70
     0
  3

 72
    65
 73
     0
 40
0.0
  0
LTYPE
  5
15
330
5
100
AcDbSymbolTableRecord
100
AcDbLinetypeTableRecord
  2
BYLAYER
 70
     0
  3

 72
    65
 73
     0
 40
0.0
  0
LTYPE
  5
16
330
5
100
AcDbSymbolTableRecord
100
AcDbLinetypeTableRecord
  2
CONTINUOUS
 70
     0
  3
Solid line
 72
    65
 73
     0
 40
0.0
  0
LTYPE
  5
6A
330
5
100
AcDbSymbolTableRecord
100
AcDbLinetypeTableRecord
  2
HIDDEN
 70
     0
  3
Hidden __ __ __ __ __ __ __ __ __ __ __ __ __ __
 72
    65
 73
     2
 40
1.905
 49
1.27
 74
     0
 49
-0.635
 74
     0
  0
LTYPE
  5
6B
330
5
100
AcDbSymbolTableRecord
100
AcDbLinetypeTableRecord
  2
PHANTOM
 70
     0
  3
Phantom ______  __  __  ______  __  __  ______
 72
    65
 73
     6
 40
12.7
 49
6.35
 74
     0
 49
-1.27
 74
     0
 49
1.27
 74
     0
 49
-1.27
 74
     0
 49
1.27
 74
     0
 49
-1.27
 74
     0
  0
LTYPE
  5
6C
330
5
100
AcDbSymbolTableRecord
100
AcDbLinetypeTableRecord
  2
CENTER
 70
     0
  3
Center ____ _ ____ _ ____ _ ____ _ ____ _ ____
 72
    65
 73
     4
 40
10.16
 49
6.35
 74
     0
 49
-1.27
 74
     0
 49
1.27
 74
     0
 49
-1.27
 74
     0
  0
LTYPE
  5
6D
330
5
100
AcDbSymbolTableRecord
100
AcDbLinetypeTableRecord
  2
CENTERX2
 70
     0
  3
Center (2x) ________  __  ________  __  _____
 72
    65
 73
     4
 40
20.32
 49
12.7
 74
     0
 49
-2.54
 74
     0
 49
2.54
 74
     0
 49
-2.54
 74
     0
  0
LTYPE
  5
6E
330
5
100
AcDbSymbolTableRecord
100
AcDbLinetypeTableRecord
  2
DOT2
 70
     0
  3
Dot (.5x) ........................................
 72
    65
 73
     2
 40
0.635
 49
0.0
 74
     0
 49
-0.635
 74
     0
  0
ENDTAB
  0
TABLE
  2
LAYER
  5
2
330
0
100
AcDbSymbolTable
 70
     2
  0
LAYER
  5
10
330
2
100
AcDbSymbolTableRecord
100
AcDbLayerTableRecord
  2
0
 70
     0
 62
     7
  6
CONTINUOUS
  0
LAYER
  5
6F
330
2
100
AcDbSymbolTableRecord
100
AcDbLayerTableRecord
  2
FORMAT
 70
     0
 62
     7
  6
CONTINUOUS
  0
ENDTAB
  0
TABLE
  2
STYLE
  5
3
330
0
100
AcDbSymbolTable
 70
     1
  0
STYLE
  5
11
330
3
100
AcDbSymbolTableRecord
100
AcDbTextStyleTableRecord
  2
STANDARD
 70
     0
 40
0.0
 41
1.0
 50
0.0
 71
     0
 42
3.5
  3
txt
  4

  0
ENDTAB
  0
TABLE
  2
VIEW
  5
6
330
0
100
AcDbSymbolTable
 70
     0
  0
ENDTAB
  0
TABLE
  2
UCS
  5
7
330
0
100
AcDbSymbolTable
 70
     0
  0
ENDTAB
  0
TABLE
  2
APPID
  5
9
330
0
100
AcDbSymbolTable
 70
     1
  0
APPID
  5
12
330
9
100
AcDbSymbolTableRecord
100
AcDbRegAppTableRecord
  2
ACAD
 70
     0
  0
ENDTAB
  0
TABLE
  2
DIMSTYLE
  5
A
330
0
100
AcDbSymbolTable
 70
     1
  0
DIMSTYLE
105
27
330
A
100
AcDbSymbolTableRecord
100
AcDbDimStyleTableRecord
  2
ISO-25
 70
     0
  3

  4

  5

  6

  7

 40
1.0
 41
2.5
 42
0.625
 43
3.75
 44
1.25
 45
0.0
 46
0.0
 47
0.0
 48
0.0
140
2.5
141
2.5
142
0.0
143
0.0393700787
144
1.0
145
0.0
146
1.0
147
0.625
 71
     0
 72
     0
 73
     0
 74
     0
 75
     0
 76
     0
 77
     1
 78
     8
170
     0
171
     3
172
     1
173
     0
174
     0
175
     0
176
     0
177
     0
178
     0
270
     2
271
     2
272
     2
273
     2
274
     3
340
11
275
     0
280
     0
281
     0
282
     0
283
     0
284
     8
285
     0
286
     0
287
     3
288
     0
  0
ENDTAB
  0
TABLE
  2
BLOCK_RECORD
  5
1
330
0
100
AcDbSymbolTable
 70
     1
  0
BLOCK_RECORD
  5
1F
330
1
100
AcDbSymbolTableRecord
100
AcDbBlockTableRecord
  2
*MODEL_SPACE
  0
BLOCK_RECORD
  5
1B
330
1
100
AcDbSymbolTableRecord
100
AcDbBlockTableRecord
  2
*PAPER_SPACE
  0
BLOCK_RECORD
  5
23
330
1
100
AcDbSymbolTableRecord
100
AcDbBlockTableRecord
  2
*PAPER_SPACE0
  0
ENDTAB
  0
ENDSEC
  0
SECTION
  2
BLOCKS
  0
BLOCK
  5
20
330
1F
100
AcDbEntity
  8
0
100
AcDbBlockBegin
  2
*MODEL_SPACE
 70
     0
 10
0.0
 20
0.0
 30
0.0
  3
*MODEL_SPACE
  1

  0
ENDBLK
  5
21
330
1F
100
AcDbEntity
  8
0
100
AcDbBlockEnd
  0
BLOCK
  5
1C
330
1B
100
AcDbEntity
 67
     1
  8
0
100
AcDbBlockBegin
  2
*PAPER_SPACE
 70
     0
 10
0.0
 20
0.0
 30
0.0
  3
*PAPER_SPACE
  1

  0
ENDBLK
  5
1D
330
1B
100
AcDbEntity
 67
     1
  8
0
100
AcDbBlockEnd
  0
BLOCK
  5
24
330
23
100
AcDbEntity
  8
0
100
AcDbBlockBegin
  2
*PAPER_SPACE0
 70
     0
 10
0.0
 20
0.0
 30
0.0
  3
*PAPER_SPACE0
  1
*PAPER_SPACE0
  0
ENDBLK
  5
25
330
23
100
AcDbEntity
  8
0
100
AcDbBlockEnd
  0
ENDSEC
  0
SECTION
  2
ENTITIES
  0
LWPOLYLINE
  5
73
330
1F
100
AcDbEntity
  8
0
  6
CONTINUOUS
 62
     7
100
AcDbPolyline
 90
        4
 70
   128
 43
0.0
 10
153.025401905892
 20
25.83585737210002
 10
153.002859420692
 20
25.84223867960002
 10
152.984513935592
 20
25.84753906520001
 10
152.985365734792
 20
25.84727544900002
  0
ARC
  5
74
330
1F
100
AcDbEntity
  8
0
  6
CONTINUOUS
 62
     7
100
AcDbCircle
 10
46.49513665979202
 20
494.2576301244001
 30
0.0
 40
3.475583747331684
100
AcDbArc
 50
82.87683004249983
 51
177.0105959524996
  0
ARC
  5
75
330
1F
100
AcDbEntity
  8
0
  6
CONTINUOUS
 62
     7
100
AcDbCircle
 10
83.64618968489202
 20
493.8235346772
 30
0.0
 40
3.591079549232581
100
AcDbArc
 50
8.2475670953011
 51
95.19912462810011
  0
LINE
  5
76
330
1F
100
AcDbEntity
  8
0
  6
CONTINUOUS
 62
     7
100
AcDbLine
 10
43.01881590069203
 20
494.6252075469
 30
0.0
 11
42.74988892929201
 21
489.3372079173
 31
0.0
  0
ARC
  5
77
330
1F
100
AcDbEntity
  8
0
  6
CONTINUOUS
 62
     7
100
AcDbCircle
 10
106.486044401392
 20
493.7261495516
 30
0.0
 40
3.475630840099321
100
AcDbArc
 50
82.87480747610014
 51
177.0100610631989
  0
ARC
  5
78
330
1F
100
AcDbEntity
  8
0
  6
CONTINUOUS
 62
     7
100
AcDbCircle
 10
123.587314171792
 20
493.3729162919
 30
0.0
 40
3.682731507039881
100
AcDbArc
 50
33.93759596730037
 51
94.2454556558002
  0
LINE
  5
79
330
1F
100
AcDbEntity
  8
0
  6
CONTINUOUS
 62
     7
100
AcDbLine
 10
103.009678305992
 20
494.0937618328001
 30
0.0
 11
102.740751334492
 21
488.8057622033
 31
0.0
  0
LINE
  5
7A
330
1F
100
AcDbEntity
  8
0
  6
CONTINUOUS
 62
     7
100
AcDbLine
 10
83.32083332209203
 20
497.4166263418
 30
0.0
 11
46.92637679629203
 21
497.7390367417
 31
0.0
  0
LINE
  5
7B
330
1F
100
AcDbEntity
  8
0
  6
CONTINUOUS
 62
     7
100
AcDbLine
 10
123.314741592292
 20
497.0623291991
 30
0.0
 11
106.917239201492
 21
497.2075910276
 31
0.0
  0
LINE
  5
7C
330
1F
100
AcDbEntity
  8
0
  6
CONTINUOUS
 62
     7
100
AcDbLine
 10
123.185808831292
 20
482.5235123491
 30
0.0
 11
106.185808831292
 21
482.5235123491
 31
0.0
  0
LINE
  5
7D
330
1F
100
AcDbEntity
  8
0
  6
CONTINUOUS
 62
     7
100
AcDbLine
 10
83.18580883129201
 20
482.5235123491
 30
0.0
 11
46.18580883129201
 21
482.5235123491
 31
0.0
  0
LINE
  5
7E
330
1F
100
AcDbEntity
  8
0
  6
CONTINUOUS
 62
     7
100
AcDbLine
 10
59.61946777429202
 20
500.2226102803
 30
0.0
 11
59.58846894629201
 21
499.947345829
 31
0.0
  0
LINE
  5
7F
330
1F
100
AcDbEntity
  8
0
  6
CONTINUOUS
 62
     7
100
AcDbLine
 10
69.69399200169201
 20
499.9478225034001
 30
0.0
 11
69.66309933899203
 21
500.2221438458
 31
0.0
  0
LINE
  5
80
330
1F
100
AcDbEntity
  8
0
  6
CONTINUOUS
 62
     7
100
AcDbLine
 10
114.897909892792
 20
500.2821944439
 30
0.0
 11
114.745569838992
 21
500.0041497417
 31
0.0
  0
LINE
  5
81
330
1F
100
AcDbEntity
  8
0
  6
CONTINUOUS
 62
     7
100
AcDbLine
 10
118.752073818192
 20
500.0054297097
 30
0.0
 11
118.727613545292
 21
500.2830796573
 31
0.0
  0
LINE
  5
82
330
1F
100
AcDbEntity
  8
0
  6
CONTINUOUS
 62
     7
100
AcDbLine
 10
119.191544546492
 20
502.1291261268
 30
0.0
 11
119.168797489992
 21
502.3052721849
 31
0.0
  0
LINE
  5
83
330
1F
100
AcDbEntity
  8
0
  6
CONTINUOUS
 62
     7
100
AcDbLine
 10
118.817575569492
 20
502.930092421
 30
0.0
 11
118.795022774092
 21
503.0964372094001
 31
0.0
  0
LINE
  5
84
330
1F
100
AcDbEntity
  8
0
  6
CONTINUOUS
 62
     7
100
AcDbLine
 10
110.100528449292
 20
503.1009290449
 30
0.0
 11
110.060634771192
 21
502.9618727551
 31
0.0
  0
LINE
  5
85
330
1F
100
AcDbEntity
  8
0
  6
CONTINUOUS
 62
     7
100
AcDbLine
 10
109.268272002192
 20
504.739280961
 30
0.0
 11
109.219433133892
 21
504.5105450588001
 31
0.0
  0
LINE
  5
86
330
1F
100
AcDbEntity
  8
0
  6
CONTINUOUS
 62
     7
100
AcDbLine
 10
115.638019914492
 20
505.3360119175001
 30
0.0
 11
115.604853815492
 21
505.4906367338
 31
0.0
  0
LINE
  5
87
330
1F
100
AcDbEntity
  8
0
  6
CONTINUOUS
 62
     7
100
AcDbLine
 10
109.252157331692
 20
505.4912396619001
 30
0.0
 11
109.219392473792
 21
505.3361748786
 31
0.0
  0
LINE
  5
88
330
1F
100
AcDbEntity
  8
0
  6
CONTINUOUS
 62
     7
100
AcDbLine
 10
114.300193287792
 20
505.3913570241
 30
0.0
 11
114.211982423592
 21
505.5460846146
 31
0.0
  0
LINE
  5
89
330
1F
100
AcDbEntity
  8
0
  6
CONTINUOUS
 62
     7
100
AcDbLine
 10
120.160780407792
 20
507.5454944508
 30
0.0
 11
120.130468601292
 21
507.7066830996
 31
0.0
  0
LINE
  5
8A
330
1F
100
AcDbEntity
  8
0
  6
CONTINUOUS
 62
     7
100
AcDbLine
 10
33.77585845939203
 20
0.9004962810000166
 30
0.0
 11
33.88580883129202
 21
2.000000000000028
 31
0.0
  0
ARC
  5
8B
330
1F
100
AcDbEntity
  8
0
  6
CONTINUOUS
 62
     7
100
AcDbCircle
 10
32.78082126919202
 20
1.000000000000028
 30
0.0
 40
1.0
100
AcDbArc
 50
270.0
 51
354.2894068624994
  0
LINE
  5
8C
330
1F
100
AcDbEntity
  8
0
  6
CONTINUOUS
 62
     7
100
AcDbLine
 10
135.485808831292
 20
2.000000000000028
 30
0.0
 11
135.595759203192
 21
0.9004962810000166
 31
0.0
  0
ARC
  5
8D
330
1F
100
AcDbEntity
  8
0
  6
CONTINUOUS
 62
     7
100
AcDbCircle
 10
136.590796393392
 20
1.000000000000028
 30
0.0
 40
1.000000000000025
100
AcDbArc
 50
185.7105931375004
 51
270.0
  0
CIRCLE
  5
8E
330
1F
100
AcDbEntity
  8
0
  6
CONTINUOUS
 62
     7
100
AcDbCircle
 10
143.685808831292
 20
38.60000000000002
 30
0.0
 40
8.750000000000057
  0
LINE
  5
8F
330
1F
100
AcDbEntity
  8
0
  6
CONTINUOUS
 62
     7
100
AcDbLine
 10
89.76967560099203
 20
145.9
 30
0.0
 11
89.76967560099203
 21
151.3998242003
 31
0.0
  0
LINE
  5
90
330
1F
100
AcDbEntity
  8
0
  6
CONTINUOUS
 62
     7
100
AcDbLine
 10
79.56967560099201
 20
151.3993581736
 30
0.0
 11
79.56967560099201
 21
145.9
 31
0.0
  0
LINE
  5
91
330
1F
100
AcDbEntity
  8
0
  6
CONTINUOUS
 62
     7
100
AcDbLine
 10
79.56967560099201
 20
145.9
 30
0.0
 11
89.76967560099203
 21
145.9
 31
0.0
  0
ELLIPSE
  5
A0
330
1F
100
AcDbEntity
  8
0
  6
CONTINUOUS
 62
     7
100
AcDbEllipse
 10
29.68580883129201
 20
-4.095321342299997
 30
0.0
 11
0.0
 21
93.56805248210121
 31
0.0
210
0.0
220
0.0
230
1.0
 40
0.2673800487
 41
1.505606975438671
 42
1.527013968289497
  0
LINE
  5
A1
330
1F
100
AcDbEntity
  8
0
  6
CONTINUOUS
 62
     7
100
AcDbLine
 10
4.982544948592022
 20
17.00000077380001
 30
0.0
 11
4.72071896119202
 21
2.000000000000028
 31
0.0
  0
LINE
  5
A2
330
1F
100
AcDbEntity
  8
0
  6
CONTINUOUS
 62
     7
100
AcDbLine
 10
4.982544935092022
 20
17.00000000000001
 30
0.0
 11
4.982558089292027
 21
17.00000000000001
 31
0.0
  0
LINE
  5
A3
330
1F
100
AcDbEntity
  8
0
  6
CONTINUOUS
 62
     7
100
AcDbLine
 10
4.982558089292027
 20
17.00000000000001
 30
0.0
 11
29.68580883129201
 21
17.00000000000001
 31
0.0
  0
LINE
  5
A4
330
1F
100
AcDbEntity
  8
0
  6
CONTINUOUS
 62
     7
100
AcDbLine
 10
29.68580883129201
 20
17.00000270190002
 30
0.0
 11
29.68580883129201
 21
2.000000000000028
 31
0.0
  0
LINE
  5
A5
330
1F
100
AcDbEntity
  8
0
  6
CONTINUOUS
 62
     7
100
AcDbLine
 10
29.14991044639203
 20
0.0000000000000284
 30
0.0
 11
29.68580883129201
 21
2.000000000000028
 31
0.0
  0
LINE
  5
A6
330
1F
100
AcDbEntity
  8
0
  6
CONTINUOUS
 62
     7
100
AcDbLine
 10
4.691553232792018
 20
0.0000000000000284
 30
0.0
 11
29.14991044639203
 21
0.0000000000000284
 31
0.0
  0
LINE
  5
A7
330
1F
100
AcDbEntity
  8
0
  6
CONTINUOUS
 62
     7
100
AcDbLine
 10
139.685808831292
 20
2.000000000000028
 30
0.0
 11
140.221707216192
 21
0.0000000000000284
 31
0.0
  0
LINE
  5
A8
330
1F
100
AcDbEntity
  8
0
  6
CONTINUOUS
 62
     7
100
AcDbLine
 10
139.685808831292
 20
17.00000050360002
 30
0.0
 11
139.685808831292
 21
2.000000000000028
 31
0.0
  0
LINE
  5
A9
330
1F
100
AcDbEntity
  8
0
  6
CONTINUOUS
 62
     7
100
AcDbLine
 10
139.685807995392
 20
16.99986655050002
 30
0.0
 11
139.719884397692
 21
16.99977643870001
 31
0.0
  0
LWPOLYLINE
  5
AA
330
1F
100
AcDbEntity
  8
0
  6
CONTINUOUS
 62
     7
100
AcDbPolyline
 90
       18
 70
   128
 43
0.0
 10
139.719884396892
 20
16.99977643880001
 10
143.495666229692
 20
17.01281219840001
 10
147.225279242092
 20
17.01716363370002
 10
149.449585333892
 20
17.01116219010001
 10
151.587594685192
 20
17.00261708670001
 10
153.617556015092
 20
16.99462033700001
 10
154.586943466992
 20
16.99143086680002
 10
155.398950746892
 20
16.98937417140002
 10
156.943052258792
 20
16.98734169220002
 10
158.370774623192
 20
16.98937402270002
 10
159.670519448892
 20
16.99365130210002
 10
160.268879961092
 20
16.99633975380002
 10
160.997885638392
 20
17.00008076690001
 10
162.260731942792
 20
17.00701872710002
 10
163.246228300792
 20
17.01010416930002
 10
163.629091027492
 20
17.00936863710001
 10
164.189215643492
 20
17.00468708970001
 10
164.388754777392
 20
17.00083026930001
  0
LINE
  5
AB
330
1F
100
AcDbEntity
  8
0
  6
CONTINUOUS
 62
     7
100
AcDbLine
 10
164.388769271292
 20
17.00000000000001
 30
0.0
 11
164.389072727492
 21
17.00000000000001
 31
0.0
  0
LINE
  5
AC
330
1F
100
AcDbEntity
  8
0
  6
CONTINUOUS
 62
     7
100
AcDbLine
 10
164.389072792892
 20
16.99999625690002
 30
0.0
 11
164.650898701392
 21
2.000000000000028
 31
0.0
  0
ELLIPSE
  5
AD
330
1F
100
AcDbEntity
  8
0
  6
CONTINUOUS
 62
     7
100
AcDbEllipse
 10
139.685808831292
 20
-4.095321342299997
 30
0.0
 11
2.842170943040401E-14
 21
93.56805248210119
 31
0.0
210
0.0
220
0.0
230
1.0
 40
0.2673800487
 41
4.756171338890093
 42
4.777578331740919
  0
LINE
  5
AE
330
1F
100
AcDbEntity
  8
0
  6
CONTINUOUS
 62
     7
100
AcDbLine
 10
140.221707216192
 20
0.0000000000000284
 30
0.0
 11
164.680064429792
 21
0.0000000000000284
 31
0.0
  0
LINE
  5
AF
330
1F
100
AcDbEntity
  8
0
  6
CONTINUOUS
 62
     7
100
AcDbLine
 10
29.68583238449202
 20
16.99803071560001
 30
0.0
 11
29.73717999039201
 21
16.99835236990002
 31
0.0
  0
LINE
  5
B0
330
1F
100
AcDbEntity
  8
0
  6
CONTINUOUS
 62
     7
100
AcDbLine
 10
29.73717864249201
 20
17.00000000000001
 30
0.0
 11
84.68580883129201
 21
17.00000000000001
 31
0.0
  0
LINE
  5
B1
330
1F
100
AcDbEntity
  8
0
  6
CONTINUOUS
 62
     7
100
AcDbLine
 10
84.68580883129201
 20
17.00000000000001
 30
0.0
 11
139.685808831292
 21
17.00000000000001
 31
0.0
  0
LINE
  5
B2
330
1F
100
AcDbEntity
  8
0
  6
CONTINUOUS
 62
     7
100
AcDbLine
 10
139.685808831292
 20
2.000000000000028
 30
0.0
 11
29.68580883129201
 21
2.000000000000028
 31
0.0
  0
LWPOLYLINE
  5
B3
330
1F
100
AcDbEntity
  8
0
  6
CONTINUOUS
 62
     7
100
AcDbPolyline
 90
        8
 70
   128
 43
0.0
 10
139.719884126692
 20
17.00000000000001
 10
138.888505293092
 20
19.62737818440002
 10
137.879909235792
 20
21.82277882360002
 10
136.726407886892
 20
23.34477012430001
 10
135.519447752192
 20
24.46227670910001
 10
134.298730864492
 20
25.38024256390001
 10
131.869664827692
 20
26.59144519610001
 10
129.413745438892
 20
27.00000000000001
  0
LINE
  5
B4
330
1F
100
AcDbEntity
  8
0
  6
CONTINUOUS
 62
     7
100
AcDbLine
 10
144.389380710292
 20
27.00000000000001
 30
0.0
 11
129.413745438892
 21
27.00000000000001
 31
0.0
  0
LWPOLYLINE
  5
B5
330
1F
100
AcDbEntity
  8
0
  6
CONTINUOUS
 62
     7
100
AcDbPolyline
 90
        8
 70
   128
 43
0.0
 10
164.389136052892
 20
17.00000000000001
 10
162.894112271292
 20
19.62737818440002
 10
160.990249206592
 20
21.82277882360002
 10
158.752090331292
 20
23.34477012430001
 10
156.390602294292
 20
24.46227670910001
 10
153.997377493992
 20
25.38024256390001
 10
149.224354379092
 20
26.59144519610001
 10
144.389380710292
 20
27.00000000000001
  0
LWPOLYLINE
  5
B6
330
1F
100
AcDbEntity
  8
0
  6
CONTINUOUS
 62
     7
100
AcDbPolyline
 90
        8
 70
   128
 43
0.0
 10
4.98263363859202
 20
17.00000000000001
 10
6.476448199292022
 20
19.62737818440002
 10
8.379782215492014
 20
21.82277882360002
 10
10.61796819929202
 20
23.34477012430001
 10
12.97968852329203
 20
24.46227670910001
 10
15.37319840999201
 20
25.38024256390001
 10
20.14690137649202
 20
26.59144519610001
 10
24.98265796189202
 20
27.00000000000001
  0
LINE
  5
B7
330
1F
100
AcDbEntity
  8
0
  6
CONTINUOUS
 62
     7
100
AcDbLine
 10
40.01969110029202
 20
27.00000000000001
 30
0.0
 11
24.98265796189202
 21
27.00000000000001
 31
0.0
  0
LWPOLYLINE
  5
B8
330
1F
100
AcDbEntity
  8
0
  6
CONTINUOUS
 62
     7
100
AcDbPolyline
 90
        8
 70
   128
 43
0.0
 10
29.73717864249201
 20
17.00000000000001
 10
30.56675022879202
 20
19.62737818440002
 10
31.57307864289203
 20
21.82277882360002
 10
32.72393589649201
 20
23.34477012430001
 10
33.92811305429203
 20
24.46227670910001
 10
35.14601122619203
 20
25.38024256390001
 10
37.56945936869201
 20
26.59144519610001
 10
40.01969110029202
 20
27.00000000000001
  0
LINE
  5
B9
330
1F
100
AcDbEntity
  8
0
  6
CONTINUOUS
 62
     7
100
AcDbLine
 10
84.68580883129201
 20
17.00000000000001
 30
0.0
 11
84.68580883129201
 21
27.00000000000001
 31
0.0
  0
LINE
  5
BA
330
1F
100
AcDbEntity
  8
0
  6
CONTINUOUS
 62
     7
100
AcDbLine
 10
127.389380710392
 20
27.00000000000001
 30
0.0
 11
84.68580883129201
 21
27.00000000000001
 31
0.0
  0
LINE
  5
BB
330
1F
100
AcDbEntity
  8
0
  6
CONTINUOUS
 62
     7
100
AcDbLine
 10
127.389541396692
 20
27.00000000000001
 30
0.0
 11
127.389380710392
 21
27.00000000000001
 31
0.0
  0
LINE
  5
BC
330
1F
100
AcDbEntity
  8
0
  6
CONTINUOUS
 62
     7
100
AcDbLine
 10
129.413745438892
 20
27.00000000000001
 30
0.0
 11
127.389541396692
 21
27.00000000000001
 31
0.0
  0
LINE
  5
BD
330
1F
100
AcDbEntity
  8
0
  6
CONTINUOUS
 62
     7
100
AcDbLine
 10
41.91690132239202
 20
27.00000000000001
 30
0.0
 11
40.01969110029202
 21
27.00000000000001
 31
0.0
  0
LINE
  5
BE
330
1F
100
AcDbEntity
  8
0
  6
CONTINUOUS
 62
     7
100
AcDbLine
 10
41.91706551579202
 20
27.00000000000001
 30
0.0
 11
41.91690132239202
 21
27.00000000000001
 31
0.0
  0
LINE
  5
BF
330
1F
100
AcDbEntity
  8
0
  6
CONTINUOUS
 62
     7
100
AcDbLine
 10
41.98223695229203
 20
26.99999999980001
 30
0.0
 11
41.91706551589203
 21
27.00000000000001
 31
0.0
  0
LINE
  5
C0
330
1F
100
AcDbEntity
  8
0
  6
CONTINUOUS
 62
     7
100
AcDbLine
 10
55.12092132599201
 20
26.99999999960002
 30
0.0
 11
41.98223695229203
 21
26.99999999980001
 31
0.0
  0
LINE
  5
C1
330
1F
100
AcDbEntity
  8
0
  6
CONTINUOUS
 62
     7
100
AcDbLine
 10
84.68580883129201
 20
27.00000000000001
 30
0.0
 11
55.12092132599201
 21
27.00000000000001
 31
0.0
  0
ARC
  5
C2
330
1F
100
AcDbEntity
  8
0
  6
CONTINUOUS
 62
     7
100
AcDbCircle
 10
144.394562082892
 20
-8.585359893999993
 30
0.0
 40
35.58536031743671
100
AcDbArc
 50
76.12946440109997
 51
90.00883837889995
  0
ARC
  5
C3
330
1F
100
AcDbEntity
  8
0
  6
CONTINUOUS
 62
     7
100
AcDbCircle
 10
142.505699270192
 20
23.87514638300001
 30
0.0
 40
10.62667155171978
100
AcDbArc
 50
10.76008203450005
 51
11.32690234629997
  0
ARC
  5
C4
330
1F
100
AcDbEntity
  8
0
  6
CONTINUOUS
 62
     7
100
AcDbCircle
 10
142.642705028892
 20
-11.36133201279998
 30
0.0
 40
38.61901355853106
100
AcDbArc
 50
71.3272835366
 51
74.40420854079998
  0
LWPOLYLINE
  5
C5
330
1F
100
AcDbEntity
  8
0
  6
CONTINUOUS
 62
     7
100
AcDbPolyline
 90
        7
 70
   128
 43
0.0
 10
164.389072037192
 20
17.00000000000001
 10
164.389059628892
 20
17.00005870210002
 10
164.127854071392
 20
17.97748904170001
 10
162.859153886092
 20
20.52316743910002
 10
160.821144779492
 20
22.58297828540002
 10
158.285584132892
 20
23.92469036120002
 10
155.007041960392
 20
25.22488643740002
  0
LINE
  5
C6
330
1F
100
AcDbEntity
  8
0
  6
CONTINUOUS
 62
     7
100
AcDbLine
 10
144.389385227792
 20
26.99999999860002
 30
0.0
 11
144.389385272092
 21
26.99999999860002
 31
0.0
  0
LWPOLYLINE
  5
C7
330
1F
100
AcDbEntity
  8
0
  6
CONTINUOUS
 62
     7
100
AcDbPolyline
 90
        7
 70
   128
 43
0.0
 10
14.36457596719202
 20
25.22488681350002
 10
10.28529370159202
 20
23.54786839180002
 10
8.947718855292024
 20
22.84526984660002
 10
7.722485517192027
 20
21.91138434680002
 10
6.60075277119202
 20
20.64638768670001
 10
5.704879615692022
 20
19.13747583440002
 10
4.982535662992021
 20
17.00000000000001
  0
ARC
  5
C8
330
1F
100
AcDbEntity
  8
0
  6
CONTINUOUS
 62
     7
100
AcDbCircle
 10
29.39090177109202
 20
-19.94975611409998
 30
0.0
 40
47.60818029297537
100
AcDbArc
 50
105.802557578
 51
108.3985408501
  0
ARC
  5
C9
330
1F
100
AcDbEntity
  8
0
  6
CONTINUOUS
 62
     7
100
AcDbCircle
 10
26.86128113859202
 20
23.87607517410001
 30
0.0
 40
10.62194219925402
100
AcDbArc
 50
168.6730971876
 51
169.2401707242
  0
ARC
  5
CA
330
1F
100
AcDbEntity
  8
0
  6
CONTINUOUS
 62
     7
100
AcDbCircle
 10
24.97597748999202
 20
-8.576186030199977
 30
0.0
 40
35.57618663640768
100
AcDbArc
 50
89.98942306860002
 51
103.8723918592
  0
LINE
  5
CB
330
1F
100
AcDbEntity
  8
0
  6
CONTINUOUS
 62
     7
100
AcDbLine
 10
24.98265796189202
 20
27.00000000000001
 30
0.0
 11
24.98254474549202
 21
27.00000000000001
 31
0.0
  0
ARC
  5
CC
330
1F
100
AcDbEntity
  8
0
  6
CONTINUOUS
 62
     7
100
AcDbCircle
 10
16.68580883129202
 20
24.99141807670001
 30
0.0
 40
1.000000000000027
100
AcDbArc
 50
103.8618411678003
 51
129.3090408271003
  0
ARC
  5
CD
330
1F
100
AcDbEntity
  8
0
  6
CONTINUOUS
 62
     7
100
AcDbCircle
 10
152.685808831292
 20
24.99141807670001
 30
0.0
 40
1.00000000000001
100
AcDbArc
 50
50.03688005980067
 51
76.13815883219944
  0
LINE
  5
CE
330
1F
100
AcDbEntity
  8
0
  6
CONTINUOUS
 62
     7
100
AcDbLine
 10
41.98223695199201
 20
26.99999999950002
 30
0.0
 11
55.12083202649202
 21
26.99999999960002
 31
0.0
  0
LINE
  5
CF
330
1F
100
AcDbEntity
  8
0
  6
CONTINUOUS
 62
     7
100
AcDbLine
 10
127.389571396692
 20
27.00000000000001
 30
0.0
 11
127.389801720192
 21
27.00000000000001
 31
0.0
  0
LWPOLYLINE
  5
D0
330
1F
100
AcDbEntity
  8
0
  6
CONTINUOUS
 62
     7
100
AcDbPolyline
 90
       22
 70
   128
 43
0.0
 10
25.12011381079202
 20
452.6000000059
 10
25.12011415289201
 20
445.6496526741
 10
25.12012111079203
 20
417.8482633471
 10
25.12022003759202
 20
306.6427060394
 10
25.12029685509202
 20
251.0399273859
 10
25.12033801969201
 20
223.2385380568
 10
25.12035948979202
 20
209.337843391
 10
25.12037045509202
 20
202.3874960573
 10
25.12035717619202
 20
198.9123223902
 10
25.15177399869202
 20
195.4371487724
 10
25.39432488199202
 20
193.5563485535
 10
26.06595138909202
 20
191.1832921328
 10
27.16037773589203
 20
188.8921947851
 10
28.58161014409202
 20
186.8759467525
 10
30.36881661679203
 20
185.0744629102
 10
32.38253661759202
 20
183.6309756171
 10
34.67506619609202
 20
182.515625119
 10
37.05402140569203
 20
181.8256064031
 10
39.58874440919203
 20
181.5408896238
 10
49.64751309479203
 20
181.534467652
 10
59.70644345529203
 20
181.534469121
 10
84.68580883119202
 20
181.5344692928
  0
LINE
  5
D1
330
1F
100
AcDbEntity
  8
0
  6
CONTINUOUS
 62
     7
100
AcDbLine
 10
25.24422769289203
 20
452.6000000059
 30
0.0
 11
25.12011381079202
 21
452.6000000059
 31
0.0
  0
LWPOLYLINE
  5
D2
330
1F
100
AcDbEntity
  8
0
  6
CONTINUOUS
 62
     7
100
AcDbPolyline
 90
       27
 70
   128
 43
0.0
 10
84.68580883119202
 20
181.6584188675
 10
83.68580883119202
 20
181.6584188697
 10
79.68580883119202
 20
181.6584189132
 10
63.68580883119202
 20
181.6584189757
 10
44.93295615729201
 20
181.658416586
 10
40.78490270219203
 20
181.6584201585
 10
38.71087577019202
 20
181.713606607
 10
36.63684930879202
 20
182.0428040211
 10
34.30520302729201
 20
182.7979589494
 10
32.07055691869203
 20
183.9699323681
 10
30.12286547699202
 20
185.4546384754
 10
28.40202254499202
 20
187.2939978519
 10
27.04009304849203
 20
189.3566904782
 10
26.01739772509202
 20
191.6867347949
 10
25.43057227469203
 20
194.0630430459
 10
25.24404190929202
 20
196.5751066714
 10
25.24422551189203
 20
216.12133244
 10
25.24422468459203
 20
235.6670794463
 10
25.24422550289202
 20
255.2128264226
 10
25.24422673369202
 20
274.7585733696
 10
25.24422739929201
 20
294.3043203079
 10
25.24422777989201
 20
313.850067255
 10
25.24422798699202
 20
333.3958142029001
 10
25.24422805909202
 20
352.9415611518
 10
25.24422803379203
 20
372.4873081015
 10
25.24422794809202
 20
392.0330550522
 10
25.24422769289203
 20
452.6000000059
  0
LINE
  5
D3
330
1F
100
AcDbEntity
  8
0
  6
CONTINUOUS
 62
     7
100
AcDbLine
 10
84.68580883119202
 20
181.6584188675
 30
0.0
 11
84.68580883119202
 21
181.5344692928
 31
0.0
  0
LINE
  5
D4
330
1F
100
AcDbEntity
  8
0
  6
CONTINUOUS
 62
     7
100
AcDbLine
 10
84.68580883119202
 20
181.5344692928
 30
0.0
 11
84.68580883129201
 21
181.0604135132
 31
0.0
  0
LWPOLYLINE
  5
D5
330
1F
100
AcDbEntity
  8
0
  6
CONTINUOUS
 62
     7
100
AcDbPolyline
 90
       29
 70
   128
 43
0.0
 10
84.68580883129201
 20
181.0604135132
 10
83.68580883129201
 20
181.0604135164
 10
79.68580883129201
 20
181.0604135808
 10
63.68580883129201
 20
181.0604140032
 10
44.17836696109202
 20
181.0604129611
 10
39.57684916089201
 20
181.0670673968
 10
37.03542744489201
 20
181.3467428105
 10
34.50539412909202
 20
182.0741074896
 10
32.20435530499202
 20
183.1868472496
 10
30.06271964299202
 20
184.7142131173
 10
28.26589804449202
 20
186.5167618231
 10
26.75245683629203
 20
188.652825762
 10
25.64936863429202
 20
190.9471560022
 10
24.92912261309202
 20
193.4661979768
 10
24.65349304609202
 20
195.9550650276
 10
24.64541160309201
 20
198.4958686706
 10
24.64560205049202
 20
203.5806504857
 10
24.64588383299203
 20
232.3550956419
 10
24.64603199829202
 20
246.7423182863
 10
24.64632624029203
 20
275.5167636794
 10
24.64639734509203
 20
282.7103750456999
 10
24.64668757419201
 20
314.0559377208
 10
24.64678886109202
 20
326.1212669732
 10
24.64697045739202
 20
350.2519255059
 10
24.64712077709203
 20
374.3825840698
 10
24.64723637879202
 20
398.5132426618001
 10
24.64731385779201
 20
422.6439012843
 10
24.64734919429202
 20
446.7745599453
 10
24.64735084869201
 20
452.5999999973
  0
LINE
  5
D6
330
1F
100
AcDbEntity
  8
0
  6
CONTINUOUS
 62
     7
100
AcDbLine
 10
25.12011381079202
 20
452.6000000059
 30
0.0
 11
24.64735084869201
 21
452.5999999973
 31
0.0
  0
LWPOLYLINE
  5
D7
330
1F
100
AcDbEntity
  8
0
  6
CONTINUOUS
 62
     7
100
AcDbPolyline
 90
       20
 70
   128
 43
0.0
 10
84.68580883119202
 20
181.5344692928
 10
91.63609693589203
 20
181.5344688384
 10
119.437249354292
 20
181.5344642612
 10
126.270604457792
 20
181.534466658
 10
129.687282341592
 20
181.5387067651
 10
133.103959586992
 20
182.0060722044
 10
135.457303641392
 20
182.83255968
 10
137.700735425192
 20
184.0846161297
 10
139.625079789792
 20
185.6343613348
 10
141.310887224292
 20
187.535873043
 10
142.618057420292
 20
189.6319831894
 10
143.581376320392
 20
191.9846276346
 10
144.200515988392
 20
195.1678437403
 10
144.251171786192
 20
198.5282399539
 10
144.251458109292
 20
360.6472411311
 10
144.251470557392
 20
375.0472792526
 10
144.251487272192
 20
399.0148954236
 10
144.251498507892
 20
422.9825115936001
 10
144.251503628092
 20
446.9501277627
 10
144.251503859892
 20
452.6000000058
  0
LINE
  5
D8
330
1F
100
AcDbEntity
  8
0
  6
CONTINUOUS
 62
     7
100
AcDbLine
 10
144.251503859892
 20
452.6000000058
 30
0.0
 11
144.724266822092
 21
452.5999999973
 31
0.0
  0
LWPOLYLINE
  5
D9
330
1F
100
AcDbEntity
  8
0
  6
CONTINUOUS
 62
     7
100
AcDbPolyline
 90
       21
 70
   128
 43
0.0
 10
144.724266822092
 20
452.5999999973
 10
144.724266906092
 20
451.5999999973
 10
144.724268073292
 20
447.5999999973
 10
144.724285544392
 20
431.5999999973
 10
144.724535886192
 20
367.5999999977
 10
144.725303051992
 20
274.3303848607
 10
144.725584319392
 20
246.7476612959
 10
144.726047453592
 20
200.1129753481
 10
144.725660484992
 20
196.3993165987
 10
144.269325141592
 20
192.6856536827
 10
144.033411685792
 20
191.8437646144
 10
143.072877775492
 20
189.4825693536
 10
141.689875001492
 20
187.2531367876
 10
140.003584508592
 20
185.3421974083
 10
137.966063878192
 20
183.6933313385
 10
135.721423223692
 20
182.4329637465
 10
133.222281204792
 20
181.5478776103
 10
129.346951436192
 20
181.0606171607
 10
125.345751162292
 20
181.0604115582
 10
117.343244820792
 20
181.0604097204
 10
84.68580883129201
 20
181.0604135132
  0
LWPOLYLINE
  5
DA
330
1F
100
AcDbEntity
  8
0
  6
CONTINUOUS
 62
     7
100
AcDbPolyline
 90
       24
 70
   128
 43
0.0
 10
25.71407400319202
 20
452.6000000058
 10
25.71407400349202
 20
451.6000000058
 10
25.71407400689202
 20
447.6000000058
 10
25.71407405029203
 20
431.6000000058
 10
25.71407435749202
 20
367.6000000058
 10
25.71407396429203
 20
306.2078187669
 10
25.71407246279202
 20
265.1367931624
 10
25.71407102399202
 20
237.6605071803
 10
25.71407157429202
 20
218.6965847998
 10
25.71407470859202
 20
199.7326624192
 10
25.71388798519202
 20
196.5755756191
 10
25.88361430779202
 20
194.2064015401
 10
26.46235028909202
 20
191.8376356888
 10
27.41872975249203
 20
189.6440919324
 10
28.77104169639202
 20
187.5848244338
 10
30.38725476079202
 20
185.8490802858
 10
32.32372649509202
 20
184.365734242
 10
34.42197753989203
 20
183.2586701747
 10
36.74334344629202
 20
182.5004208489
 10
39.67306384119203
 20
182.1328745516
 10
42.68724470469203
 20
182.128264023
 10
48.71775218119203
 20
182.1282634838
 10
77.49219750109202
 20
182.1282652615
 10
84.68580883109203
 20
182.1282651779
  0
LINE
  5
DB
330
1F
100
AcDbEntity
  8
0
  6
CONTINUOUS
 62
     7
100
AcDbLine
 10
143.657543658992
 20
452.6000000058
 30
0.0
 11
25.71407400319202
 21
452.6000000058
 31
0.0
  0
LWPOLYLINE
  5
DC
330
1F
100
AcDbEntity
  8
0
  6
CONTINUOUS
 62
     7
100
AcDbPolyline
 90
       27
 70
   128
 43
0.0
 10
84.68580883109203
 20
182.1282651779
 10
85.68580883109203
 20
182.1282651674
 10
89.68580883109203
 20
182.1282649359
 10
105.685808831092
 20
182.1282622335
 10
123.844661706292
 20
182.1282606
 10
126.796509031592
 20
182.0770885691
 10
129.746564554392
 20
182.1096583795
 10
132.646790214992
 20
182.5051028586
 10
134.934188925692
 20
183.2533797186
 10
137.063343592792
 20
184.3756322533
 10
138.971227620692
 20
185.8399268087
 10
140.611209299292
 20
187.5991297413
 10
141.944436517792
 20
189.6307583676
 10
142.916003943492
 20
191.8579488379
 10
143.478170679992
 20
194.1920753264
 10
143.657409760092
 20
196.5888980772
 10
143.657544569492
 20
216.1282268679
 10
143.657545074192
 20
235.6675532611
 10
143.657544887692
 20
255.2068796543
 10
143.657544390592
 20
274.7462060476
 10
143.657543934692
 20
294.2855324408
 10
143.657543637692
 20
313.824858834
 10
143.657543471892
 20
333.3641852272
 10
143.657543408592
 20
352.9035116205
 10
143.657543419792
 20
372.4428380137
 10
143.657543477592
 20
391.9821644069
 10
143.657543658992
 20
452.6000000058
  0
LINE
  5
DD
330
1F
100
AcDbEntity
  8
0
  6
CONTINUOUS
 62
     7
100
AcDbLine
 10
84.68580883109203
 20
182.1282651779
 30
0.0
 11
84.68580883119202
 21
181.6584188675
 31
0.0
  0
LINE
  5
DE
330
1F
100
AcDbEntity
  8
0
  6
CONTINUOUS
 62
     7
100
AcDbLine
 10
25.24422769289203
 20
452.6000000059
 30
0.0
 11
25.71407400319202
 21
452.6000000060001
 31
0.0
  0
LINE
  5
DF
330
1F
100
AcDbEntity
  8
0
  6
CONTINUOUS
 62
     7
100
AcDbLine
 10
143.657543658992
 20
452.6000000058
 30
0.0
 11
144.127389969492
 21
452.6000000058
 31
0.0
  0
LWPOLYLINE
  5
E0
330
1F
100
AcDbEntity
  8
0
  6
CONTINUOUS
 62
     7
100
AcDbPolyline
 90
       22
 70
   128
 43
0.0
 10
144.127389969492
 20
452.6000000058
 10
144.127389969292
 20
451.6000000058
 10
144.127389966992
 20
447.6000000058
 10
144.127389935992
 20
431.6000000058
 10
144.127389721992
 20
367.6000000058
 10
144.127390704192
 20
274.6292093961
 10
144.127391198192
 20
255.2068796641
 10
144.127390426992
 20
208.7214852035
 10
144.127256014892
 20
196.589127609
 10
143.954512978292
 20
194.1486136177
 10
143.361241694992
 20
191.7078941932
 10
142.376576134592
 20
189.4389853531
 10
140.980550952792
 20
187.3087129514
 10
139.314224883292
 20
185.5143777422
 10
137.317061910492
 20
183.9801814225
 10
135.150965628592
 20
182.8339719361
 10
132.753971003692
 20
182.0476466945
 10
129.794451124592
 20
181.6651547201
 10
126.746892534292
 20
181.6584171818
 10
120.648618918592
 20
181.658413957
 10
91.87837079219202
 20
181.658418388
 10
84.68580883119202
 20
181.6584188675
  0
LWPOLYLINE
  5
E1
330
1F
100
AcDbEntity
  8
0
  6
CONTINUOUS
 62
     7
100
AcDbPolyline
 90
        9
 70
   128
 43
0.0
 10
4.810022762292022
 20
453.1000000058
 10
4.777172579892024
 20
453.0903920644
 10
4.745584887992024
 20
453.0619374906
 10
4.716473657392015
 20
453.0157298436001
 10
4.690957683992025
 20
452.9535449651
 10
4.670017591792018
 20
452.8777727296
 10
4.654458145392027
 20
452.791325198
 10
4.644877321892025
 20
452.6975247015
 10
4.641643329192021
 20
452.5999761588
  0
ARC
  5
E2
330
1F
100
AcDbEntity
  8
0
  6
CONTINUOUS
 62
     7
100
AcDbCircle
 10
46.07822007909203
 20
452.7249957474
 30
0.0
 40
21.43123374678959
100
AcDbArc
 50
178.9973858643999
 51
180.3341743936
  0
LWPOLYLINE
  5
E3
330
1F
100
AcDbEntity
  8
0
  6
CONTINUOUS
 62
     7
100
AcDbPolyline
 90
        7
 70
   128
 43
0.0
 10
24.64735084869201
 20
452.5999999973
 10
19.65688257089202
 20
452.5999981193
 10
14.66884777349202
 20
452.5999932103
 10
10.20350438989202
 20
452.5999866156
 10
5.797583596892025
 20
452.5999784944
 10
4.641712529892018
 20
452.5999761589001
 10
4.641656034392014
 20
452.5999761588
  0
LINE
  5
E4
330
1F
100
AcDbEntity
  8
0
  6
CONTINUOUS
 62
     7
100
AcDbLine
 10
4.641656034392014
 20
452.5999761588
 30
0.0
 11
4.641643329192021
 21
452.5999761588
 31
0.0
  0
LINE
  5
E5
330
1F
100
AcDbEntity
  8
0
  6
CONTINUOUS
 62
     7
100
AcDbLine
 10
4.810022762292022
 20
453.1000000058
 30
0.0
 11
24.65026750039202
 21
453.1000000058
 31
0.0
  0
LWPOLYLINE
  5
E6
330
1F
100
AcDbEntity
  8
0
  6
CONTINUOUS
 62
     7
100
AcDbPolyline
 90
        7
 70
   128
 43
0.0
 10
164.729961627692
 20
452.5999761582
 10
164.729905132192
 20
452.5999761583
 10
163.574034065192
 20
452.5999784939
 10
159.193626039692
 20
452.5999865726
 10
154.702769889092
 20
452.5999932103
 10
149.749164008292
 20
452.5999980954
 10
144.724266822092
 20
452.5999999973
  0
ARC
  5
E7
330
1F
100
AcDbEntity
  8
0
  6
CONTINUOUS
 62
     7
100
AcDbCircle
 10
123.293398083592
 20
452.7249957474
 30
0.0
 40
21.43123325479273
100
AcDbArc
 50
359.6658255988
 51
1.002614158600002
  0
LWPOLYLINE
  5
E8
330
1F
100
AcDbEntity
  8
0
  6
CONTINUOUS
 62
     7
100
AcDbPolyline
 90
        9
 70
   128
 43
0.0
 10
164.729974334592
 20
452.5999761581
 10
164.726740341992
 20
452.6975247009
 10
164.717159518492
 20
452.7913251976
 10
164.701600072092
 20
452.8777727293
 10
164.680659979892
 20
452.9535449648
 10
164.655144006492
 20
453.0157298435
 10
164.626032775792
 20
453.0619374905
 10
164.594445083792
 20
453.0903920644
 10
164.561594901292
 20
453.1000000058
  0
LINE
  5
E9
330
1F
100
AcDbEntity
  8
0
  6
CONTINUOUS
 62
     7
100
AcDbLine
 10
144.721350170292
 20
453.1000000058
 30
0.0
 11
164.561594901292
 21
453.1000000058
 31
0.0
  0
LINE
  5
EA
330
1F
100
AcDbEntity
  8
0
  6
CONTINUOUS
 62
     7
100
AcDbLine
 10
144.251503859892
 20
452.6000000058
 30
0.0
 11
144.127389969492
 21
452.6000000058
 31
0.0
  0
ARC
  5
EB
330
1F
100
AcDbEntity
  8
0
  6
CONTINUOUS
 62
     7
100
AcDbCircle
 10
144.685808831292
 20
181.1000000058
 30
0.0
 40
24.68580883129195
100
AcDbArc
 50
270.0
 51
0.0
  0
LINE
  5
EC
330
1F
100
AcDbEntity
  8
0
  6
CONTINUOUS
 62
     7
100
AcDbLine
 10
97.94233875519203
 20
156.4141911745
 30
0.0
 11
144.685808831292
 21
156.4141911745
 31
0.0
  0
ARC
  5
ED
330
1F
100
AcDbEntity
  8
0
  6
CONTINUOUS
 62
     7
100
AcDbCircle
 10
98.45128785369201
 20
160.4645052374
 30
0.0
 40
4.082257828252204
100
AcDbArc
 50
217.7950652638999
 51
262.8275515489999
  0
LWPOLYLINE
  5
EE
330
1F
100
AcDbEntity
  8
0
  6
CONTINUOUS
 62
     7
100
AcDbPolyline
 90
        8
 70
   128
 43
0.0
 10
84.68580883129201
 20
165.999773154
 10
84.68586883129203
 20
165.9997731537
 10
86.84059081119202
 20
165.6199060496
 10
88.85877860359201
 20
164.6070282107
 10
90.84223194579201
 20
163.0607961106
 10
92.61100119739203
 20
161.2743230397
 10
95.22542581119203
 20
157.9627814981
 10
95.22545588629202
 20
157.9627384428
  0
LINE
  5
EF
330
1F
100
AcDbEntity
  8
0
  6
CONTINUOUS
 62
     7
100
AcDbLine
 10
84.68580883129201
 20
165.999773154
 30
0.0
 11
84.68580883129201
 21
181.0604135132
 31
0.0
  0
LWPOLYLINE
  5
F0
330
1F
100
AcDbEntity
  8
0
  6
CONTINUOUS
 62
     7
100
AcDbPolyline
 90
        5
 70
   128
 43
0.0
 10
168.059840679592
 20
452.5999718772
 10
166.778779072092
 20
452.599969059
 10
165.733813026692
 20
452.5999714272
 10
164.730018123092
 20
452.5999761578
 10
164.729974334592
 20
452.5999761581
  0
LWPOLYLINE
  5
F1
330
1F
100
AcDbEntity
  8
0
  6
CONTINUOUS
 62
     7
100
AcDbPolyline
 90
        5
 70
   128
 43
0.0
 10
169.371617662592
 20
452.6000000058
 10
169.371616614892
 20
452.6000000052001
 10
169.091503348892
 20
452.5999842802
 10
168.630613478092
 20
452.5999767984
 10
168.059840679592
 20
452.5999718772
  0
LINE
  5
F2
330
1F
100
AcDbEntity
  8
0
  6
CONTINUOUS
 62
     7
100
AcDbLine
 10
169.371617662592
 20
181.1000000058
 30
0.0
 11
169.371617662592
 21
452.6000000058
 31
0.0
  0
LWPOLYLINE
  5
F3
330
1F
100
AcDbEntity
  8
0
  6
CONTINUOUS
 62
     7
100
AcDbPolyline
 90
        7
 70
   128
 43
0.0
 10
1.311776903092024
 20
452.5999718785
 10
0.8220549547920228
 20
452.5999758997
 10
0.4347753411920223
 20
452.5999811038
 10
0.2433337846920267
 20
452.5999852236
 10
0.1053795002920168
 20
452.5999900353
 10
0.0313189723920146
 20
452.5999947648
 10
-0.0000000001079741
 20
452.6000000061
  0
LWPOLYLINE
  5
F4
330
1F
100
AcDbEntity
  8
0
  6
CONTINUOUS
 62
     7
100
AcDbPolyline
 90
        5
 70
   128
 43
0.0
 10
4.641643329192021
 20
452.5999761588
 10
4.641599538892024
 20
452.5999761585
 10
2.985626346792017
 20
452.5999695778
 10
2.023534016592023
 20
452.5999693098
 10
1.311776903092024
 20
452.5999718785
  0
LWPOLYLINE
  5
F5
330
1F
100
AcDbEntity
  8
0
  6
CONTINUOUS
 62
     7
100
AcDbPolyline
 90
        8
 70
   128
 43
0.0
 10
74.14616180339203
 20
157.9627377234
 10
74.14619187849203
 20
157.9627807787
 10
76.72897955819201
 20
161.239069774
 10
78.43065409669202
 20
162.9708180028
 10
80.41407098689203
 20
164.5423372806
 10
82.80846061309202
 20
165.710812808
 10
84.68574883129202
 20
165.9997731537
 10
84.68580883129201
 20
165.999773154
  0
ARC
  5
F6
330
1F
100
AcDbEntity
  8
0
  6
CONTINUOUS
 62
     7
100
AcDbCircle
 10
70.830590204992
 20
160.6219043756
 30
0.0
 40
4.250197914042213
100
AcDbArc
 50
278.1078498377
 51
321.2695642788
  0
LINE
  5
F7
330
1F
100
AcDbEntity
  8
0
  6
CONTINUOUS
 62
     7
100
AcDbLine
 10
24.68580883129202
 20
156.4141911745
 30
0.0
 11
71.42927892029203
 21
156.4141911745
 31
0.0
  0
ARC
  5
F8
330
1F
100
AcDbEntity
  8
0
  6
CONTINUOUS
 62
     7
100
AcDbCircle
 10
24.68580883129202
 20
181.1000000058
 30
0.0
 40
24.68580883129202
100
AcDbArc
 50
180.0
 51
270.0
  0
LINE
  5
F9
330
1F
100
AcDbEntity
  8
0
  6
CONTINUOUS
 62
     7
100
AcDbLine
 10
-0.0000000000079865
 20
452.6000000061
 30
0.0
 11
-0.0000000000079865
 21
181.1000000058
 31
0.0
  0
ARC
  5
FA
330
1F
100
AcDbEntity
  8
0
  6
CONTINUOUS
 62
     7
100
AcDbCircle
 10
24.63470685649202
 20
452.6146222281
 30
0.0
 40
0.4856271416728949
100
AcDbArc
 50
358.2745645954992
 51
88.16379320479939
  0
ARC
  5
FB
330
1F
100
AcDbEntity
  8
0
  6
CONTINUOUS
 62
     7
100
AcDbCircle
 10
144.736910814292
 20
452.6146222281
 30
0.0
 40
0.4856271416463312
100
AcDbArc
 50
91.83620679959884
 51
181.7254354123917
  0
ARC
  5
FC
330
1F
100
AcDbEntity
  8
0
  6
CONTINUOUS
 62
     7
100
AcDbCircle
 10
144.612796923792
 20
452.6146222281
 30
0.0
 40
0.4856271416463028
100
AcDbArc
 50
91.83620679959884
 51
181.7254354123918
  0
ARC
  5
FD
330
1F
100
AcDbEntity
  8
0
  6
CONTINUOUS
 62
     7
100
AcDbCircle
 10
24.75882073849202
 20
452.6146222281
 30
0.0
 40
0.4856271416729518
100
AcDbArc
 50
358.2745645954994
 51
88.16379320479982
  0
LINE
  5
FE
330
1F
100
AcDbEntity
  8
0
  6
CONTINUOUS
 62
     7
100
AcDbLine
 10
25.71407400309202
 20
453.1000000058
 30
0.0
 11
25.71407400319202
 21
452.6000000058
 31
0.0
  0
LINE
  5
FF
330
1F
100
AcDbEntity
  8
0
  6
CONTINUOUS
 62
     7
100
AcDbLine
 10
143.657543658892
 20
453.1000000058
 30
0.0
 11
143.657543658992
 21
452.6000000058
 31
0.0
  0
LWPOLYLINE
  5
100
330
1F
100
AcDbEntity
  8
0
  6
CONTINUOUS
 62
     7
100
AcDbPolyline
 90
       18
 70
   128
 43
0.0
 10
97.05787397329203
 20
155.4143971225
 10
96.61980936289203
 20
155.5068375172
 10
96.13380014799202
 20
155.7477788107
 10
95.62712944729202
 20
156.122189402
 10
95.11052007729202
 20
156.6293504507
 10
94.74278177659201
 20
157.0827819267
 10
94.39548536129203
 20
157.6028694662
 10
93.67933036329202
 20
158.6727314931
 10
92.90903413889203
 20
159.7401419695
 10
92.08257485569203
 20
160.7948391663
 10
91.30742200459201
 20
161.7003179184
 10
90.47658480909203
 20
162.5792684913
 10
89.57089561079201
 20
163.4248915273
 10
88.58055149899201
 20
164.2069652231
 10
87.683115098292
 20
164.7779656112
 10
86.69692629149202
 20
165.2439452496
 10
85.73030957409202
 20
165.5272625555
 10
84.68580883129201
 20
165.6328517292
  0
LINE
  5
101
330
1F
100
AcDbEntity
  8
0
  6
CONTINUOUS
 62
     7
100
AcDbLine
 10
84.68580883129201
 20
165.999773154
 30
0.0
 11
84.68580883129201
 21
165.6328517292
 31
0.0
  0
ARC
  5
102
330
1F
100
AcDbEntity
  8
0
  6
CONTINUOUS
 62
     7
100
AcDbCircle
 10
98.01423274789201
 20
155.4595266508
 30
0.0
 40
0.9574232317069573
100
AcDbArc
 50
94.35122225859917
 51
182.7019879330002
  0
LWPOLYLINE
  5
103
330
1F
100
AcDbEntity
  8
0
  6
CONTINUOUS
 62
     7
100
AcDbPolyline
 90
       18
 70
   128
 43
0.0
 10
84.68580883129201
 20
165.6328517292
 10
83.80971830459202
 20
165.5585128552
 10
82.93362777789201
 20
165.3370152336
 10
81.78095803979201
 20
164.8289904904
 10
80.69888371349202
 20
164.1407349552
 10
79.753733475192
 20
163.3840077029
 10
78.87344693619201
 20
162.5576594903
 10
78.04097291309202
 20
161.6743750742
 10
77.25951463019203
 20
160.7587422281
 10
76.42226374339202
 20
159.6863164395
 10
75.63879228709203
 20
158.5954733319
 10
74.90305750789202
 20
157.48921476
 10
74.53499355639201
 20
156.9582433932
 10
74.13340050129202
 20
156.4912999948
 10
73.59355408709203
 20
155.9982628718
 10
73.04242377229201
 20
155.6359259255
 10
72.66986407219201
 20
155.4793549331
 10
72.31374388059203
 20
155.4143954389
  0
ARC
  5
104
330
1F
100
AcDbEntity
  8
0
  6
CONTINUOUS
 62
     7
100
AcDbCircle
 10
71.35701634849201
 20
155.4604229774
 30
0.0
 40
0.9564457168192739
100
AcDbArc
 50
357.2385435662995
 51
85.71179859839978
  0
ELLIPSE
  5
105
330
1F
100
AcDbEntity
  8
0
  6
CONTINUOUS
 62
     7
100
AcDbEllipse
 10
84.68580883129201
 20
155.291853392
 30
0.0
 11
14.0
 21
0.0
 31
0.0
210
0.0
220
0.0
230
1.0
 40
0.0187018553
 41
2.654758549391874
 42
3.054326190990153
  0
ELLIPSE
  5
106
330
1F
100
AcDbEntity
  8
0
  6
CONTINUOUS
 62
     7
100
AcDbEllipse
 10
84.68580883129201
 20
155.291853392
 30
0.0
 11
14.0
 21
0.0
 31
0.0
210
0.0
220
0.0
230
1.0
 40
0.0187018553
 41
0.0872664625996354
 42
0.4868341041979221
  0
LINE
  5
107
330
1F
100
AcDbEntity
  8
0
  6
CONTINUOUS
 62
     7
100
AcDbLine
 10
98.63253460459202
 20
152.311935067
 30
0.0
 11
98.63253460459202
 21
155.3146730292
 31
0.0
  0
ELLIPSE
  5
108
330
1F
100
AcDbEntity
  8
0
  6
CONTINUOUS
 62
     7
100
AcDbEllipse
 10
84.68580883129201
 20
152.292158048
 30
0.0
 11
14.0
 21
0.0
 31
0.0
210
0.0
220
0.0
230
1.0
 40
0.0162082746
 41
0.0872664625997077
 42
3.054326190990083
  0
LINE
  5
109
330
1F
100
AcDbEntity
  8
0
  6
CONTINUOUS
 62
     7
100
AcDbLine
 10
70.73908305799202
 20
152.311935067
 30
0.0
 11
70.73908305799202
 21
155.3146730292
 31
0.0
  0
ARC
  5
10A
330
1F
100
AcDbEntity
  8
0
  6
CONTINUOUS
 62
     7
100
AcDbCircle
 10
97.63272675599202
 20
152.3118886928
 30
0.0
 40
0.9998078496518129
100
AcDbArc
 50
270.2070585105007
 51
0.0026575571009035
  0
ELLIPSE
  5
10B
330
1F
100
AcDbEntity
  8
0
  6
CONTINUOUS
 62
     7
100
AcDbEllipse
 10
84.68580883129201
 20
151.2923103529
 30
0.0
 11
13.0
 21
0.0
 31
0.0
210
0.0
220
0.0
230
1.0
 40
0.0174550649
 41
0.0872664625997191
 42
3.054326190990078
  0
ARC
  5
10C
330
1F
100
AcDbEntity
  8
0
  6
CONTINUOUS
 62
     7
100
AcDbCircle
 10
71.73889090659202
 20
152.3118886928
 30
0.0
 40
0.9998078496518807
100
AcDbArc
 50
179.9973424428991
 51
269.7929414894993
  0
ARC
  5
10D
330
1F
100
AcDbEntity
  8
0
  6
CONTINUOUS
 62
     7
100
AcDbCircle
 10
167.601305576192
 20
452.6424776102
 30
0.0
 40
0.4605010079685155
100
AcDbArc
 50
354.7038755386995
 51
83.47975816800353
  0
LINE
  5
10E
330
1F
100
AcDbEntity
  8
0
  6
CONTINUOUS
 62
     7
100
AcDbLine
 10
164.561594901292
 20
453.1000000058
 30
0.0
 11
167.653597409992
 21
453.1000000058
 31
0.0
  0
ARC
  5
10F
330
1F
100
AcDbEntity
  8
0
  6
CONTINUOUS
 62
     7
100
AcDbCircle
 10
1.770312008392025
 20
452.6424776082
 30
0.0
 40
0.4605010095682419
100
AcDbArc
 50
96.52024134079949
 51
185.2961240248921
  0
LINE
  5
110
330
1F
100
AcDbEntity
  8
0
  6
CONTINUOUS
 62
     7
100
AcDbLine
 10
1.718020178292022
 20
453.1000000058
 30
0.0
 11
4.810022762292022
 21
453.1000000058
 31
0.0
  0
LINE
  5
111
330
1F
100
AcDbEntity
  8
0
  6
CONTINUOUS
 62
     7
100
AcDbLine
 10
92.65536641599203
 20
151.3041761932
 30
0.0
 11
93.67874283039203
 21
151.1000000058
 31
0.0
  0
ELLIPSE
  5
112
330
1F
100
AcDbEntity
  8
0
  6
CONTINUOUS
 62
     7
100
AcDbEllipse
 10
84.68580883129201
 20
151.29200572
 30
0.0
 11
8.0
 21
0.0
 31
0.0
210
0.0
220
0.0
230
1.0
 40
0.0174550649
 41
0.0872664625994996
 42
3.054326190990305
  0
LINE
  5
113
330
1F
100
AcDbEntity
  8
0
  6
CONTINUOUS
 62
     7
100
AcDbLine
 10
75.69287483219202
 20
151.1000000058
 30
0.0
 11
76.71625124659201
 21
151.3041761932
 31
0.0
  0
LINE
  5
114
330
1F
100
AcDbEntity
  8
0
  6
CONTINUOUS
 62
     7
100
AcDbLine
 10
75.69287483219202
 20
151.1000000058
 30
0.0
 11
70.67224875669203
 21
151.1000000058
 31
0.0
  0
LINE
  5
115
330
1F
100
AcDbEntity
  8
0
  6
CONTINUOUS
 62
     7
100
AcDbLine
 10
71.73527775609202
 20
151.3120873718
 30
0.0
 11
70.67224875669203
 21
151.1000000058
 31
0.0
  0
LINE
  5
116
330
1F
100
AcDbEntity
  8
0
  6
CONTINUOUS
 62
     7
100
AcDbLine
 10
98.69936890589202
 20
151.1000000058
 30
0.0
 11
97.63633990649203
 21
151.3120873718
 31
0.0
  0
LINE
  5
117
330
1F
100
AcDbEntity
  8
0
  6
CONTINUOUS
 62
     7
100
AcDbLine
 10
98.69936890589202
 20
151.1000000058
 30
0.0
 11
93.67874283039203
 21
151.1000000058
 31
0.0
  0
ARC
  5
118
330
1F
100
AcDbEntity
  8
0
  6
CONTINUOUS
 62
     7
100
AcDbCircle
 10
168.871655735892
 20
452.6000380791
 30
0.0
 40
0.4999619281388251
100
AcDbArc
 50
359.9956367892009
 51
89.99563612299936
  0
LINE
  5
119
330
1F
100
AcDbEntity
  8
0
  6
CONTINUOUS
 62
     7
100
AcDbLine
 10
167.653597409992
 20
453.1000000058
 30
0.0
 11
168.871693814992
 21
453.1000000058
 31
0.0
  0
ARC
  5
11A
330
1F
100
AcDbEntity
  8
0
  6
CONTINUOUS
 62
     7
100
AcDbCircle
 10
0.4999619266920234
 20
452.6000380791
 30
0.0
 40
0.4999619281387614
100
AcDbArc
 50
90.00436389290036
 51
180.0043631791006
  0
LINE
  5
11B
330
1F
100
AcDbEntity
  8
0
  6
CONTINUOUS
 62
     7
100
AcDbLine
 10
0.4999238473920258
 20
453.1000000058
 30
0.0
 11
1.718020178292022
 21
453.1000000058
 31
0.0
  0
ARC
  5
11C
330
1F
100
AcDbEntity
  8
0
  6
CONTINUOUS
 62
     7
100
AcDbCircle
 10
69.73927520939202
 20
155.3147194034
 30
0.0
 40
0.9998078496519875
100
AcDbArc
 50
359.9973424429007
 51
89.79294148949934
  0
ELLIPSE
  5
11D
330
1F
100
AcDbEntity
  8
0
  6
CONTINUOUS
 62
     7
100
AcDbEllipse
 10
84.68580883129201
 20
156.2917010871
 30
0.0
 11
15.0
 21
0.0
 31
0.0
210
0.0
220
0.0
230
1.0
 40
0.0174550649
 41
2.654758549391867
 42
3.054326190990183
  0
ELLIPSE
  5
11E
330
1F
100
AcDbEntity
  8
0
  6
CONTINUOUS
 62
     7
100
AcDbEllipse
 10
84.68580883129201
 20
156.2917010871
 30
0.0
 11
15.0
 21
0.0
 31
0.0
210
0.0
220
0.0
230
1.0
 40
0.0174550649
 41
0.0872664625996218
 42
0.4868341041979221
  0
ARC
  5
11F
330
1F
100
AcDbEntity
  8
0
  6
CONTINUOUS
 62
     7
100
AcDbCircle
 10
99.63234245319202
 20
155.3147194034
 30
0.0
 40
0.9998078496519568
100
AcDbArc
 50
90.20705851050069
 51
180.0026575570993
  0
LINE
  5
120
330
1F
100
AcDbEntity
  8
0
  6
CONTINUOUS
 62
     7
100
AcDbLine
 10
144.685808831292
 20
156.4141911745
 30
0.0
 11
144.685808831292
 21
156.1000000058
 31
0.0
  0
LINE
  5
121
330
1F
100
AcDbEntity
  8
0
  6
CONTINUOUS
 62
     7
100
AcDbLine
 10
169.371617662592
 20
181.1000000058
 30
0.0
 11
169.685808831292
 21
181.1000000058
 31
0.0
  0
ARC
  5
122
330
1F
100
AcDbEntity
  8
0
  6
CONTINUOUS
 62
     7
100
AcDbCircle
 10
144.685808831292
 20
181.1000000058
 30
0.0
 40
25.00000000000001
100
AcDbArc
 50
327.3248882916
 51
0.0
  0
LINE
  5
123
330
1F
100
AcDbEntity
  8
0
  6
CONTINUOUS
 62
     7
100
AcDbLine
 10
165.694459543792
 20
167.6782690331
 30
0.0
 11
165.729443170292
 21
167.6031317095
 31
0.0
  0
ARC
  5
124
330
1F
100
AcDbEntity
  8
0
  6
CONTINUOUS
 62
     7
100
AcDbCircle
 10
202.920485291892
 20
140.413470301
 30
0.0
 40
46.14267268920805
100
AcDbArc
 50
143.780494356
 51
145.9378267761
  0
ARC
  5
125
330
1F
100
AcDbEntity
  8
0
  6
CONTINUOUS
 62
     7
100
AcDbCircle
 10
144.685808831292
 20
181.1000000058
 30
0.0
 40
24.91272467535936
100
AcDbArc
 50
294.905481773
 51
323.4320979651
  0
ARC
  5
126
330
1F
100
AcDbEntity
  8
0
  6
CONTINUOUS
 62
     7
100
AcDbCircle
 10
156.464513749592
 20
154.3615988576
 30
0.0
 40
4.337904498769762
100
AcDbArc
 50
107.2641720679
 51
121.8228747291999
  0
LINE
  5
127
330
1F
100
AcDbEntity
  8
0
  6
CONTINUOUS
 62
     7
100
AcDbLine
 10
154.142174492392
 20
157.9574602039
 30
0.0
 11
154.177158118892
 21
158.0474392854
 31
0.0
  0
ARC
  5
128
330
1F
100
AcDbEntity
  8
0
  6
CONTINUOUS
 62
     7
100
AcDbCircle
 10
144.685808831292
 20
181.1000000058
 30
0.0
 40
24.99999999999997
100
AcDbArc
 50
270.0
 51
292.2256120326001
  0
LINE
  5
129
330
1F
100
AcDbEntity
  8
0
  6
CONTINUOUS
 62
     7
100
AcDbLine
 10
169.685808831292
 20
181.1000000058
 30
0.0
 11
169.685808831292
 21
452.6000000058
 31
0.0
  0
LINE
  5
12A
330
1F
100
AcDbEntity
  8
0
  6
CONTINUOUS
 62
     7
100
AcDbLine
 10
169.685808831292
 20
452.6000000058
 30
0.0
 11
169.371617662592
 21
452.6000000058
 31
0.0
  0
LINE
  5
12B
330
1F
100
AcDbEntity
  8
0
  6
CONTINUOUS
 62
     7
100
AcDbLine
 10
100.703954805492
 20
156.1000000058
 30
0.0
 11
144.685808831292
 21
156.1000000058
 31
0.0
  0
LINE
  5
12C
330
1F
100
AcDbEntity
  8
0
  6
CONTINUOUS
 62
     7
100
AcDbLine
 10
99.62872930269202
 20
156.3145207243
 30
0.0
 11
100.703954805492
 21
156.1000000058
 31
0.0
  0
LINE
  5
12D
330
1F
100
AcDbEntity
  8
0
  6
CONTINUOUS
 62
     7
100
AcDbLine
 10
-0.3141911687079784
 20
452.6000000058
 30
0.0
 11
-0.3141911687079784
 21
181.1000000058
 31
0.0
  0
LINE
  5
12E
330
1F
100
AcDbEntity
  8
0
  6
CONTINUOUS
 62
     7
100
AcDbLine
 10
-0.0000000000079865
 20
452.6000000058
 30
0.0
 11
-0.3141911687079784
 21
452.6000000058
 31
0.0
  0
LINE
  5
12F
330
1F
100
AcDbEntity
  8
0
  6
CONTINUOUS
 62
     7
100
AcDbLine
 10
-0.0000000000079865
 20
181.1000000058
 30
0.0
 11
-0.3141911687079784
 21
181.1000000058
 31
0.0
  0
ARC
  5
130
330
1F
100
AcDbEntity
  8
0
  6
CONTINUOUS
 62
     7
100
AcDbCircle
 10
24.68580883129202
 20
181.1000000058
 30
0.0
 40
24.91272467535891
100
AcDbArc
 50
216.567902035
 51
245.0945182269
  0
ARC
  5
131
330
1F
100
AcDbEntity
  8
0
  6
CONTINUOUS
 62
     7
100
AcDbCircle
 10
35.12601446709203
 20
188.752151458
 30
0.0
 40
37.85682350746135
100
AcDbArc
 50
213.8260442278
 51
216.4556346403
  0
LINE
  5
132
330
1F
100
AcDbEntity
  8
0
  6
CONTINUOUS
 62
     7
100
AcDbLine
 10
3.642174492292014
 20
167.6031317095
 30
0.0
 11
3.677158118792022
 21
167.6782690331
 31
0.0
  0
ARC
  5
133
330
1F
100
AcDbEntity
  8
0
  6
CONTINUOUS
 62
     7
100
AcDbCircle
 10
24.68580883129202
 20
181.1000000058
 30
0.0
 40
25.00000000000003
100
AcDbArc
 50
180.0
 51
212.6751117084
  0
LINE
  5
134
330
1F
100
AcDbEntity
  8
0
  6
CONTINUOUS
 62
     7
100
AcDbLine
 10
24.68580883129202
 20
156.4141911745
 30
0.0
 11
24.68580883129202
 21
156.1000000058
 31
0.0
  0
ARC
  5
135
330
1F
100
AcDbEntity
  8
0
  6
CONTINUOUS
 62
     7
100
AcDbCircle
 10
24.68580883129202
 20
181.1000000058
 30
0.0
 40
25.00000000000002
100
AcDbArc
 50
247.7743879674
 51
270.0
  0
LINE
  5
136
330
1F
100
AcDbEntity
  8
0
  6
CONTINUOUS
 62
     7
100
AcDbLine
 10
15.19445954369202
 20
158.0474392854
 30
0.0
 11
15.22944317019203
 21
157.9574602039
 31
0.0
  0
ARC
  5
137
330
1F
100
AcDbEntity
  8
0
  6
CONTINUOUS
 62
     7
100
AcDbCircle
 10
47.51217821779201
 20
230.1429011901
 30
0.0
 40
79.00753487828614
100
AcDbArc
 50
245.0578753304999
 51
245.8550778724
  0
LINE
  5
138
330
1F
100
AcDbEntity
  8
0
  6
CONTINUOUS
 62
     7
100
AcDbLine
 10
68.66766285709201
 20
156.1000000058
 30
0.0
 11
69.74288835989202
 21
156.3145207243
 31
0.0
  0
LINE
  5
139
330
1F
100
AcDbEntity
  8
0
  6
CONTINUOUS
 62
     7
100
AcDbLine
 10
24.68580883129202
 20
156.1000000058
 30
0.0
 11
68.66766285709201
 21
156.1000000058
 31
0.0
  0
ELLIPSE
  5
13A
330
1F
100
AcDbEntity
  8
0
  6
CONTINUOUS
 62
     7
100
AcDbEllipse
 10
169.185732667292
 20
452.6000000058
 30
0.0
 11
-0.500076164021948
 21
0.0
 31
0.0
210
0.0
220
0.0
230
1.0
 40
0.9998476952
 41
3.141592653589793
 42
4.712388980384704
  0
ELLIPSE
  5
13B
330
1F
100
AcDbEntity
  8
0
  6
CONTINUOUS
 62
     7
100
AcDbEllipse
 10
0.1858849952920139
 20
452.6000000058
 30
0.0
 11
0.500076164021948
 21
0.0
 31
0.0
210
0.0
220
0.0
230
1.0
 40
0.9998476952
 41
1.570796326794925
 42
3.141592653589793
  0
LINE
  5
13C
330
1F
100
AcDbEntity
  8
0
  6
CONTINUOUS
 62
     7
100
AcDbLine
 10
70.73908305799202
 20
155.3146730292
 30
0.0
 11
69.66995580689203
 21
155.1013689869
 31
0.0
  0
ELLIPSE
  5
13D
330
1F
100
AcDbEntity
  8
0
  6
CONTINUOUS
 62
     7
100
AcDbEllipse
 10
68.66613596939203
 20
155.0998476778
 30
0.0
 11
-0.984567368027655
 21
-0.1964333050994114
 31
0.0
210
0.0
220
0.0
230
1.0
 40
0.9960441251000001
 41
2.945425222253739
 42
4.514700471016307
  0
ELLIPSE
  5
13E
330
1F
100
AcDbEntity
  8
0
  6
CONTINUOUS
 62
     7
100
AcDbEllipse
 10
100.705481693192
 20
155.0998476778
 30
0.0
 11
-0.9845673680276833
 21
0.196433305099415
 31
0.0
210
0.0
220
0.0
230
1.0
 40
0.9960441251
 41
4.910077489753093
 42
6.479352738515644
  0
LINE
  5
13F
330
1F
100
AcDbEntity
  8
0
  6
CONTINUOUS
 62
     7
100
AcDbLine
 10
99.70166185569201
 20
155.1013689869
 30
0.0
 11
98.63253460459202
 21
155.3146730292
 31
0.0
  0
LINE
  5
140
330
1F
100
AcDbEntity
  8
0
  6
CONTINUOUS
 62
     7
100
AcDbLine
 10
69.66995580689203
 20
152.0986310247
 30
0.0
 11
70.73908305799202
 21
152.311935067
 31
0.0
  0
ELLIPSE
  5
141
330
1F
100
AcDbEntity
  8
0
  6
CONTINUOUS
 62
     7
100
AcDbEllipse
 10
70.67377564439201
 20
152.1001523338
 30
0.0
 11
0.984567368027655
 21
0.196433305099415
 31
0.0
210
0.0
220
0.0
230
1.0
 40
0.9960441251000001
 41
2.945425222253732
 42
4.514700471016303
  0
LINE
  5
142
330
1F
100
AcDbEntity
  8
0
  6
CONTINUOUS
 62
     7
100
AcDbLine
 10
98.63253460459202
 20
152.311935067
 30
0.0
 11
99.70166185569201
 21
152.0986310247
 31
0.0
  0
ELLIPSE
  5
143
330
1F
100
AcDbEntity
  8
0
  6
CONTINUOUS
 62
     7
100
AcDbEllipse
 10
98.69784201809202
 20
152.1001523338
 30
0.0
 11
0.984567368027655
 21
-0.1964333050994114
 31
0.0
210
0.0
220
0.0
230
1.0
 40
0.9960441251000001
 41
4.910077489753127
 42
6.479352738515701
  0
LINE
  5
144
330
1F
100
AcDbEntity
  8
0
  6
CONTINUOUS
 62
     7
100
AcDbLine
 10
69.66995580689203
 20
152.0986310247
 30
0.0
 11
69.66995580689203
 21
155.1013689869
 31
0.0
  0
LINE
  5
145
330
1F
100
AcDbEntity
  8
0
  6
CONTINUOUS
 62
     7
100
AcDbLine
 10
99.70166185569201
 20
152.0986310247
 30
0.0
 11
99.70166185569201
 21
155.1013689869
 31
0.0
  0
ARC
  5
146
330
1F
100
AcDbEntity
  8
0
  6
CONTINUOUS
 62
     7
100
AcDbCircle
 10
46.90312808729203
 20
487.6045229336
 30
0.0
 40
2.870373332425642
100
AcDbArc
 50
181.5571964609013
 51
270.6749237439001
  0
ARC
  5
147
330
1F
100
AcDbEntity
  8
0
  6
CONTINUOUS
 62
     7
100
AcDbCircle
 10
-1.327294923707981
 20
484.7992006483
 30
0.0
 40
48.26427776819815
100
AcDbArc
 50
358.4809047984
 51
359.9230125959999
  0
ARC
  5
148
330
1F
100
AcDbEntity
  8
0
  6
CONTINUOUS
 62
     7
100
AcDbCircle
 10
46.79180947929203
 20
487.2969817998001
 30
0.0
 40
3.77944758791608
100
AcDbArc
 50
182.7708257299995
 51
271.9440246844999
  0
LWPOLYLINE
  5
149
330
1F
100
AcDbEntity
  8
0
  6
CONTINUOUS
 62
     7
100
AcDbPolyline
 90
        9
 70
   128
 43
0.0
 10
44.03381479729202
 20
487.5265209413
 10
43.83948864749203
 20
487.5203067386
 10
43.65188783439203
 20
487.4981531389
 10
43.47814253159203
 20
487.4609021374
 10
43.32485630409201
 20
487.4099695389
 10
43.19785512579202
 20
487.3472911466
 10
43.10196595039201
 20
487.2752491881
 10
43.04083325289201
 20
487.1965817734
 10
43.01678051339201
 20
487.1142788274
  0
ELLIPSE
  5
14A
330
1F
100
AcDbEntity
  8
0
  6
CONTINUOUS
 62
     7
100
AcDbEllipse
 10
42.90898564159201
 20
469.01649248
 30
0.0
 11
0.5764526407945426
 21
43.49659998634701
 31
0.0
210
0.0
220
0.0
230
1.0
 40
0.0223438028
 41
5.152255934344904
 42
5.354955712606041
  0
ARC
  5
14B
330
1F
100
AcDbEntity
  8
0
  6
CONTINUOUS
 62
     7
100
AcDbCircle
 10
46.64027545509202
 20
494.7851384724
 30
0.0
 40
2.623489365159431
100
AcDbArc
 50
83.55654264300034
 51
173.7309641244011
  0
LINE
  5
14C
330
1F
100
AcDbEntity
  8
0
  6
CONTINUOUS
 62
     7
100
AcDbLine
 10
83.32914690229202
 20
497.0696450837
 30
0.0
 11
46.93469037639201
 21
497.3920554835
 31
0.0
  0
ARC
  5
14D
330
1F
100
AcDbEntity
  8
0
  6
CONTINUOUS
 62
     7
100
AcDbCircle
 10
83.56625372249201
 20
494.3812082398
 30
0.0
 40
2.698872414143522
100
AcDbArc
 50
6.733422881500539
 51
95.04016302069996
  0
ELLIPSE
  5
14E
330
1F
100
AcDbEntity
  8
0
  6
CONTINUOUS
 62
     7
100
AcDbEllipse
 10
85.86088674269203
 20
468.6359911363
 30
0.0
 11
0.1943147759895113
 21
43.499985445292
 31
0.0
210
0.0
220
0.0
230
1.0
 40
0.0077294767
 41
5.152123821501005
 42
5.354823599762427
  0
ARC
  5
14F
330
1F
100
AcDbEntity
  8
0
  6
CONTINUOUS
 62
     7
100
AcDbCircle
 10
83.41217177509202
 20
487.2480758368
 30
0.0
 40
2.837287547662319
100
AcDbArc
 50
268.3686010707003
 51
358.0707251164016
  0
LINE
  5
150
330
1F
100
AcDbEntity
  8
0
  6
CONTINUOUS
 62
     7
100
AcDbLine
 10
46.93693927429203
 20
484.7343487453001
 30
0.0
 11
83.33139580009203
 21
484.4119383454
 31
0.0
  0
ARC
  5
151
330
1F
100
AcDbEntity
  8
0
  6
CONTINUOUS
 62
     7
100
AcDbCircle
 10
35.06716160219202
 20
484.4767902484
 30
0.0
 40
48.26427776819322
100
AcDbArc
 50
358.4809047984
 51
359.923012596
  0
LWPOLYLINE
  5
152
330
1F
100
AcDbEntity
  8
0
  6
CONTINUOUS
 62
     7
100
AcDbPolyline
 90
        9
 70
   128
 43
0.0
 10
87.23043597969203
 20
486.7225998823
 10
87.21312034189202
 20
486.8052693016
 10
87.15845711199202
 20
486.8849625266
 10
87.06852388399201
 20
486.9586506445
 10
86.94673876419202
 20
487.0235329793001
 10
86.79773045899202
 20
487.0771435379
 10
86.62716235029202
 20
487.1174447353001
 10
86.44151724719202
 20
487.1429048377
 10
86.24785099229203
 20
487.1525561788001
  0
LINE
  5
153
330
1F
100
AcDbEntity
  8
0
  6
CONTINUOUS
 62
     7
100
AcDbLine
 10
83.31447666599203
 20
483.197299091
 30
0.0
 11
46.92002014009202
 21
483.5197094909
 31
0.0
  0
ARC
  5
154
330
1F
100
AcDbEntity
  8
0
  6
CONTINUOUS
 62
     7
100
AcDbCircle
 10
106.899067280192
 20
487.078355743
 30
0.0
 40
2.875596279595444
100
AcDbArc
 50
181.6595825299004
 51
270.5725376749
  0
ARC
  5
155
330
1F
100
AcDbEntity
  8
0
  6
CONTINUOUS
 62
     7
100
AcDbCircle
 10
58.66356748149201
 20
484.2677549342001
 30
0.0
 40
48.26427776830352
100
AcDbArc
 50
358.4809047983999
 51
359.9230125959999
  0
ARC
  5
156
330
1F
100
AcDbEntity
  8
0
  6
CONTINUOUS
 62
     7
100
AcDbCircle
 10
106.769015199092
 20
486.7507066832001
 30
0.0
 40
3.7651165941734
100
AcDbArc
 50
182.5554684714007
 51
272.1593819431001
  0
LWPOLYLINE
  5
157
330
1F
100
AcDbEntity
  8
0
  6
CONTINUOUS
 62
     7
100
AcDbPolyline
 90
        9
 70
   128
 43
0.0
 10
104.024677202492
 20
486.9950752272
 10
103.830351052692
 20
486.9888610246001
 10
103.642750239592
 20
486.9667074248
 10
103.469004936792
 20
486.9294564233001
 10
103.315718709292
 20
486.8785238248
 10
103.188717530992
 20
486.8158454325001
 10
103.092828355592
 20
486.7438034740001
 10
103.031695658092
 20
486.6651360593
 10
103.007642918592
 20
486.5828331133
  0
ARC
  5
158
330
1F
100
AcDbEntity
  8
0
  6
CONTINUOUS
 62
     7
100
AcDbCircle
 10
123.475348329192
 20
486.5951412513
 30
0.0
 40
3.755852249960814
100
AcDbArc
 50
267.4521225262998
 51
356.5374559771009
  0
ARC
  5
159
330
1F
100
AcDbEntity
  8
0
  6
CONTINUOUS
 62
     7
100
AcDbCircle
 10
75.06106987099201
 20
484.1224931057
 30
0.0
 40
48.26427776951566
100
AcDbArc
 50
358.4809047984
 51
359.923012596
  0
ARC
  5
15A
330
1F
100
AcDbEntity
  8
0
  6
CONTINUOUS
 62
     7
100
AcDbCircle
 10
123.411526815892
 20
486.88798246
 30
0.0
 40
2.831654285859357
100
AcDbArc
 50
268.2550966159998
 51
358.1842295711008
  0
LWPOLYLINE
  5
15B
330
1F
100
AcDbEntity
  8
0
  6
CONTINUOUS
 62
     7
100
AcDbPolyline
 90
        9
 70
   128
 43
0.0
 10
127.224344249892
 20
486.3683027396
 10
127.207028611992
 20
486.4509721589001
 10
127.152365382092
 20
486.5306653839
 10
127.062432154092
 20
486.6043535018
 10
126.940647034392
 20
486.6692358366
 10
126.791638729092
 20
486.7228463952
 10
126.621070620492
 20
486.7631475926
 10
126.435425517392
 20
486.788607695
 10
126.241759262492
 20
486.7982590361
  0
ELLIPSE
  5
15C
330
1F
100
AcDbEntity
  8
0
  6
CONTINUOUS
 62
     7
100
AcDbEllipse
 10
102.899848046892
 20
468.4850467659001
 30
0.0
 11
0.5764526407945425
 21
43.49659998634695
 31
0.0
210
0.0
220
0.0
230
1.0
 40
0.0223438028
 41
5.152255934344919
 42
5.354955712606142
  0
ARC
  5
15D
330
1F
100
AcDbEntity
  8
0
  6
CONTINUOUS
 62
     7
100
AcDbCircle
 10
106.631137860292
 20
494.2536927583
 30
0.0
 40
2.623489365159386
100
AcDbArc
 50
83.55654264300034
 51
173.7309641243986
  0
LINE
  5
15E
330
1F
100
AcDbEntity
  8
0
  6
CONTINUOUS
 62
     7
100
AcDbLine
 10
123.323055172392
 20
496.715347941
 30
0.0
 11
106.925552781692
 21
496.8606097695
 31
0.0
  0
ARC
  5
15F
330
1F
100
AcDbEntity
  8
0
  6
CONTINUOUS
 62
     7
100
AcDbCircle
 10
123.560161992592
 20
494.0269110971
 30
0.0
 40
2.69887241414369
100
AcDbArc
 50
6.733422881500115
 51
95.04016302069974
  0
ELLIPSE
  5
160
330
1F
100
AcDbEntity
  8
0
  6
CONTINUOUS
 62
     7
100
AcDbEllipse
 10
125.854795012892
 20
468.2816939936
 30
0.0
 11
0.1943147759895113
 21
43.49998544529205
 31
0.0
210
0.0
220
0.0
230
1.0
 40
0.0077294767
 41
5.152123821501142
 42
5.354823599762715
  0
LINE
  5
161
330
1F
100
AcDbEntity
  8
0
  6
CONTINUOUS
 62
     7
100
AcDbLine
 10
106.927801679492
 20
484.2029030312
 30
0.0
 11
123.325304070292
 21
484.0576412027
 31
0.0
  0
LINE
  5
162
330
1F
100
AcDbEntity
  8
0
  6
CONTINUOUS
 62
     7
100
AcDbLine
 10
123.308384936092
 20
482.8430019483001
 30
0.0
 11
106.910882545392
 21
482.9882637768001
 31
0.0
  0
LINE
  5
163
330
1F
100
AcDbEntity
  8
0
  6
CONTINUOUS
 62
     7
100
AcDbLine
 10
127.224344249892
 20
486.3683027396
 30
0.0
 11
127.222933575692
 21
486.285035571
 31
0.0
  0
ELLIPSE
  5
164
330
1F
100
AcDbEntity
  8
0
  6
CONTINUOUS
 62
     7
100
AcDbEllipse
 10
41.90932829349202
 20
469.0298433948
 30
0.0
 11
0.5675956852481363
 21
42.49663920169644
 31
0.0
210
0.0
220
0.0
230
1.0
 40
0.0225157153
 41
5.152259018038229
 42
5.354958796299553
  0
LWPOLYLINE
  5
165
330
1F
100
AcDbEntity
  8
0
  6
CONTINUOUS
 62
     7
100
AcDbPolyline
 90
        9
 70
   128
 43
0.0
 10
44.03247425829201
 20
495.0716159890001
 10
43.83814874609203
 20
495.0618134212
 10
43.65054971759201
 20
495.0296154809
 10
43.47680727859202
 20
494.9762459202
 10
43.32352488529202
 20
494.9037331646
 10
43.19652836569202
 20
494.8148332176
 10
43.10064449669201
 20
494.7129249137
 10
43.03951755149203
 20
494.6018814977
 10
43.01547079149202
 20
494.4859234142
  0
LINE
  5
166
330
1F
100
AcDbEntity
  8
0
  6
CONTINUOUS
 62
     7
100
AcDbLine
 10
42.74609672109202
 20
489.1874440778
 30
0.0
 11
42.74695502559203
 21
484.3565594399
 31
0.0
  0
LINE
  5
167
330
1F
100
AcDbEntity
  8
0
  6
CONTINUOUS
 62
     7
100
AcDbLine
 10
43.01547079149202
 20
494.4859234142
 30
0.0
 11
42.74609672109202
 21
489.1874440778
 31
0.0
  0
ELLIPSE
  5
168
330
1F
100
AcDbEntity
  8
0
  6
CONTINUOUS
 62
     7
100
AcDbEllipse
 10
101.900190698692
 20
468.4983976808001
 30
0.0
 11
0.5675956852481363
 21
42.49663920169644
 31
0.0
210
0.0
220
0.0
230
1.0
 40
0.0225157153
 41
5.152259018038316
 42
5.354958796299539
  0
LWPOLYLINE
  5
169
330
1F
100
AcDbEntity
  8
0
  6
CONTINUOUS
 62
     7
100
AcDbPolyline
 90
        9
 70
   128
 43
0.0
 10
104.023336663592
 20
494.540170275
 10
103.829011151392
 20
494.5303677071
 10
103.641412122792
 20
494.4981697668001
 10
103.467669683792
 20
494.4448002062001
 10
103.314387290492
 20
494.3722874505
 10
103.187390770992
 20
494.2833875036
 10
103.091506901892
 20
494.1814791996001
 10
103.030379956692
 20
494.0704357836
 10
103.006333196692
 20
493.9544777002001
  0
LINE
  5
16A
330
1F
100
AcDbEntity
  8
0
  6
CONTINUOUS
 62
     7
100
AcDbLine
 10
102.736959126392
 20
488.6559983637001
 30
0.0
 11
102.737719370792
 21
484.377035366
 31
0.0
  0
LINE
  5
16B
330
1F
100
AcDbEntity
  8
0
  6
CONTINUOUS
 62
     7
100
AcDbLine
 10
103.006333196692
 20
493.9544777002001
 30
0.0
 11
102.736959126392
 21
488.6559983637001
 31
0.0
  0
LINE
  5
16C
330
1F
100
AcDbEntity
  8
0
  6
CONTINUOUS
 62
     7
100
AcDbLine
 10
42.74988892929201
 20
489.3372079173
 30
0.0
 11
42.74609672109202
 21
489.1874440778
 31
0.0
  0
LINE
  5
16D
330
1F
100
AcDbEntity
  8
0
  6
CONTINUOUS
 62
     7
100
AcDbLine
 10
106.917239201492
 20
497.2075910276
 30
0.0
 11
106.917600483492
 21
497.2072949578001
 31
0.0
  0
LINE
  5
16E
330
1F
100
AcDbEntity
  8
0
  6
CONTINUOUS
 62
     7
100
AcDbLine
 10
102.740751334492
 20
488.8057622033
 30
0.0
 11
102.736959126392
 21
488.6559983637001
 31
0.0
  0
LINE
  5
16F
330
1F
100
AcDbEntity
  8
0
  6
CONTINUOUS
 62
     7
100
AcDbLine
 10
24.64735085929202
 20
453.1000000058
 30
0.0
 11
24.64735085929202
 21
469.6000000058
 31
0.0
  0
LINE
  5
170
330
1F
100
AcDbEntity
  8
0
  6
CONTINUOUS
 62
     7
100
AcDbLine
 10
24.64735085929202
 20
469.6000000058
 30
0.0
 11
25.12011380929202
 21
469.6000000058
 31
0.0
  0
LINE
  5
171
330
1F
100
AcDbEntity
  8
0
  6
CONTINUOUS
 62
     7
100
AcDbLine
 10
25.12011380929202
 20
469.6000000058
 30
0.0
 11
25.12011380929202
 21
453.1000000058
 31
0.0
  0
LINE
  5
172
330
1F
100
AcDbEntity
  8
0
  6
CONTINUOUS
 62
     7
100
AcDbLine
 10
25.12011380929202
 20
453.1000000058
 30
0.0
 11
24.64735085929202
 21
453.1000000058
 31
0.0
  0
LINE
  5
173
330
1F
100
AcDbEntity
  8
0
  6
CONTINUOUS
 62
     7
100
AcDbLine
 10
24.64735085929202
 20
469.6000000058
 30
0.0
 11
24.64735085929202
 21
512.5989714484999
 31
0.0
  0
ARC
  5
174
330
1F
100
AcDbEntity
  8
0
  6
CONTINUOUS
 62
     7
100
AcDbCircle
 10
24.65026749889202
 20
512.0989799554
 30
0.0
 40
0.5000000000002403
100
AcDbArc
 50
20.00000000000704
 51
90.33422417770038
  0
LINE
  5
175
330
1F
100
AcDbEntity
  8
0
  6
CONTINUOUS
 62
     7
100
AcDbLine
 10
25.12011380929202
 20
512.269990027
 30
0.0
 11
25.12011380929202
 21
469.6000000058
 31
0.0
  0
LINE
  5
176
330
1F
100
AcDbEntity
  8
0
  6
CONTINUOUS
 62
     7
100
AcDbLine
 10
144.251503853292
 20
453.1000000058
 30
0.0
 11
144.251503853292
 21
469.6000000058
 31
0.0
  0
LINE
  5
177
330
1F
100
AcDbEntity
  8
0
  6
CONTINUOUS
 62
     7
100
AcDbLine
 10
144.251503849992
 20
469.6000000058
 30
0.0
 11
144.724266820792
 21
469.6000000058
 31
0.0
  0
LINE
  5
178
330
1F
100
AcDbEntity
  8
0
  6
CONTINUOUS
 62
     7
100
AcDbLine
 10
144.724266803292
 20
469.6000000058
 30
0.0
 11
144.724266803292
 21
453.1000000058
 31
0.0
  0
LINE
  5
179
330
1F
100
AcDbEntity
  8
0
  6
CONTINUOUS
 62
     7
100
AcDbLine
 10
144.724266803292
 20
453.1000000058
 30
0.0
 11
144.251503853292
 21
453.1000000058
 31
0.0
  0
LINE
  5
17A
330
1F
100
AcDbEntity
  8
0
  6
CONTINUOUS
 62
     7
100
AcDbLine
 10
144.251503849992
 20
469.6000000058
 30
0.0
 11
144.251503849992
 21
512.2699900178
 31
0.0
  0
ARC
  5
17B
330
1F
100
AcDbEntity
  8
0
  6
CONTINUOUS
 62
     7
100
AcDbCircle
 10
144.721350160392
 20
512.0989799462
 30
0.0
 40
0.5000000000000479
100
AcDbArc
 50
89.66577344270013
 51
159.9999999999985
  0
LINE
  5
17C
330
1F
100
AcDbEntity
  8
0
  6
CONTINUOUS
 62
     7
100
AcDbLine
 10
144.724266820792
 20
512.5989714392
 30
0.0
 11
144.724266820792
 21
469.6000000058
 31
0.0
  0
LINE
  5
17D
330
1F
100
AcDbEntity
  8
0
  6
CONTINUOUS
 62
     7
100
AcDbLine
 10
-0.0000000000079865
 20
453.1000000058
 30
0.0
 11
4.641639310492025
 21
453.1000000058
 31
0.0
  0
LINE
  5
17E
330
1F
100
AcDbEntity
  8
0
  6
CONTINUOUS
 62
     7
100
AcDbLine
 10
-0.0000000000079865
 20
469.6000000058
 30
0.0
 11
-0.0000000000079865
 21
453.1000000058
 31
0.0
  0
LINE
  5
17F
330
1F
100
AcDbEntity
  8
0
  6
CONTINUOUS
 62
     7
100
AcDbLine
 10
4.641639310492025
 20
469.6000000058
 30
0.0
 11
-0.0000000000079865
 21
469.6000000058
 31
0.0
  0
LINE
  5
180
330
1F
100
AcDbEntity
  8
0
  6
CONTINUOUS
 62
     7
100
AcDbLine
 10
24.64735086139203
 20
469.6000000058
 30
0.0
 11
4.641639310492025
 21
469.6000000058
 31
0.0
  0
LINE
  5
181
330
1F
100
AcDbEntity
  8
0
  6
CONTINUOUS
 62
     7
100
AcDbLine
 10
4.641639310492025
 20
453.1000000058
 30
0.0
 11
24.64735085259203
 21
453.1000000058
 31
0.0
  0
LINE
  5
182
330
1F
100
AcDbEntity
  8
0
  6
CONTINUOUS
 62
     7
100
AcDbLine
 10
169.371617662592
 20
469.6000000058
 30
0.0
 11
164.729978352092
 21
469.6000000058
 31
0.0
  0
LINE
  5
183
330
1F
100
AcDbEntity
  8
0
  6
CONTINUOUS
 62
     7
100
AcDbLine
 10
169.371617662592
 20
453.1000000058
 30
0.0
 11
169.371617662592
 21
469.6000000058
 31
0.0
  0
LINE
  5
184
330
1F
100
AcDbEntity
  8
0
  6
CONTINUOUS
 62
     7
100
AcDbLine
 10
164.729978352092
 20
453.1000000058
 30
0.0
 11
169.371617662592
 21
453.1000000058
 31
0.0
  0
LINE
  5
185
330
1F
100
AcDbEntity
  8
0
  6
CONTINUOUS
 62
     7
100
AcDbLine
 10
144.724266809292
 20
453.1000000058
 30
0.0
 11
164.729978352092
 21
453.1000000058
 31
0.0
  0
LINE
  5
186
330
1F
100
AcDbEntity
  8
0
  6
CONTINUOUS
 62
     7
100
AcDbLine
 10
144.724266820792
 20
469.6000000058
 30
0.0
 11
164.729978352092
 21
469.6000000058
 31
0.0
  0
LINE
  5
187
330
1F
100
AcDbEntity
  8
0
  6
CONTINUOUS
 62
     7
100
AcDbLine
 10
164.729978352092
 20
509.0689758825
 30
0.0
 11
164.729978352092
 21
469.6000000058
 31
0.0
  0
ARC
  5
188
330
1F
100
AcDbEntity
  8
0
  6
CONTINUOUS
 62
     7
100
AcDbCircle
 10
144.371617662592
 20
452.1457286087
 30
0.0
 40
60.45427139706769
100
AcDbArc
 50
70.32062295779997
 51
89.66577344270003
  0
LINE
  5
189
330
1F
100
AcDbEntity
  8
0
  6
CONTINUOUS
 62
     7
100
AcDbLine
 10
4.641639310492025
 20
509.0689758825
 30
0.0
 11
4.641639310492025
 21
469.6000000058
 31
0.0
  0
ARC
  5
18A
330
1F
100
AcDbEntity
  8
0
  6
CONTINUOUS
 62
     7
100
AcDbCircle
 10
25.00008731199202
 20
452.1452339388001
 30
0.0
 40
60.45476657710255
100
AcDbArc
 50
90.33430655209997
 51
109.6792970799
  0
LINE
  5
18B
330
1F
100
AcDbEntity
  8
0
  6
CONTINUOUS
 62
     7
100
AcDbLine
 10
25.24422769299203
 20
469.6000000058
 30
0.0
 11
25.24422769299203
 21
511.9289899341001
 31
0.0
  0
LINE
  5
18C
330
1F
100
AcDbEntity
  8
0
  6
CONTINUOUS
 62
     7
100
AcDbLine
 10
25.12011380929202
 20
469.6000000058
 30
0.0
 11
25.24422769299203
 21
469.6000000058
 31
0.0
  0
LINE
  5
18D
330
1F
100
AcDbEntity
  8
0
  6
CONTINUOUS
 62
     7
100
AcDbLine
 10
25.12011380929202
 20
512.269990027
 30
0.0
 11
25.24422769299203
 21
511.9289899341001
 31
0.0
  0
LINE
  5
18E
330
1F
100
AcDbEntity
  8
0
  6
CONTINUOUS
 62
     7
100
AcDbLine
 10
25.24422769299203
 20
453.1000000058
 30
0.0
 11
25.24422769299203
 21
469.6000000058
 31
0.0
  0
LINE
  5
18F
330
1F
100
AcDbEntity
  8
0
  6
CONTINUOUS
 62
     7
100
AcDbLine
 10
25.24422769299203
 20
453.1000000058
 30
0.0
 11
25.12011380929202
 21
453.1000000058
 31
0.0
  0
LINE
  5
190
330
1F
100
AcDbEntity
  8
0
  6
CONTINUOUS
 62
     7
100
AcDbLine
 10
144.127389969592
 20
469.6000000058
 30
0.0
 11
144.127389969592
 21
453.1000000058
 31
0.0
  0
LINE
  5
191
330
1F
100
AcDbEntity
  8
0
  6
CONTINUOUS
 62
     7
100
AcDbLine
 10
144.127389969592
 20
469.6000000058
 30
0.0
 11
144.251503849992
 21
469.6000000058
 31
0.0
  0
LINE
  5
192
330
1F
100
AcDbEntity
  8
0
  6
CONTINUOUS
 62
     7
100
AcDbLine
 10
144.251503853292
 20
453.1000000058
 30
0.0
 11
144.127389969592
 21
453.1000000058
 31
0.0
  0
LINE
  5
193
330
1F
100
AcDbEntity
  8
0
  6
CONTINUOUS
 62
     7
100
AcDbLine
 10
144.127389969592
 20
511.9289899341001
 30
0.0
 11
144.127389969592
 21
469.6000000058
 31
0.0
  0
LINE
  5
194
330
1F
100
AcDbEntity
  8
0
  6
CONTINUOUS
 62
     7
100
AcDbLine
 10
144.127389969592
 20
511.9289899341001
 30
0.0
 11
144.251503849992
 21
512.2699900178
 31
0.0
  0
LINE
  5
195
330
1F
100
AcDbEntity
  8
0
  6
CONTINUOUS
 62
     7
100
AcDbLine
 10
143.657543659192
 20
469.6000000058
 30
0.0
 11
143.657543659192
 21
511.6000000058
 31
0.0
  0
ARC
  5
196
330
1F
100
AcDbEntity
  8
0
  6
CONTINUOUS
 62
     7
100
AcDbCircle
 10
143.657543659192
 20
512.1000000058
 30
0.0
 40
0.4999999999999561
100
AcDbArc
 50
270.0
 51
340.0000000000074
  0
LINE
  5
197
330
1F
100
AcDbEntity
  8
0
  6
CONTINUOUS
 62
     7
100
AcDbLine
 10
143.657543659192
 20
469.6000000058
 30
0.0
 11
144.127389969592
 21
469.6000000058
 31
0.0
  0
LINE
  5
198
330
1F
100
AcDbEntity
  8
0
  6
CONTINUOUS
 62
     7
100
AcDbLine
 10
143.657543659192
 20
453.1000000058
 30
0.0
 11
143.657543659192
 21
469.6000000058
 31
0.0
  0
LINE
  5
199
330
1F
100
AcDbEntity
  8
0
  6
CONTINUOUS
 62
     7
100
AcDbLine
 10
144.127389969592
 20
453.1000000058
 30
0.0
 11
143.657543659192
 21
453.1000000058
 31
0.0
  0
LINE
  5
19A
330
1F
100
AcDbEntity
  8
0
  6
CONTINUOUS
 62
     7
100
AcDbLine
 10
25.71407400339201
 20
511.6000000058
 30
0.0
 11
25.71407400339201
 21
469.6000000058
 31
0.0
  0
LINE
  5
19B
330
1F
100
AcDbEntity
  8
0
  6
CONTINUOUS
 62
     7
100
AcDbLine
 10
25.71407400339201
 20
469.6000000058
 30
0.0
 11
25.24422769299203
 21
469.6000000058
 31
0.0
  0
ARC
  5
19C
330
1F
100
AcDbEntity
  8
0
  6
CONTINUOUS
 62
     7
100
AcDbCircle
 10
25.71407400339201
 20
512.1000000058
 30
0.0
 40
0.5000000000000083
100
AcDbArc
 50
200.0000000000032
 51
270.0
  0
LINE
  5
19D
330
1F
100
AcDbEntity
  8
0
  6
CONTINUOUS
 62
     7
100
AcDbLine
 10
25.71407400339201
 20
469.6000000058
 30
0.0
 11
25.71407400339201
 21
453.1000000058
 31
0.0
  0
LINE
  5
19E
330
1F
100
AcDbEntity
  8
0
  6
CONTINUOUS
 62
     7
100
AcDbLine
 10
25.71407400339201
 20
453.1000000058
 30
0.0
 11
25.24422769299203
 21
453.1000000058
 31
0.0
  0
LINE
  5
19F
330
1F
100
AcDbEntity
  8
0
  6
CONTINUOUS
 62
     7
100
AcDbLine
 10
143.657543659192
 20
469.6000000058
 30
0.0
 11
25.71407400339201
 21
469.6000000058
 31
0.0
  0
LINE
  5
1A0
330
1F
100
AcDbEntity
  8
0
  6
CONTINUOUS
 62
     7
100
AcDbLine
 10
25.71407400339201
 20
511.6000000058
 30
0.0
 11
143.657543659192
 21
511.6000000058
 31
0.0
  0
LWPOLYLINE
  5
1A1
330
1F
100
AcDbEntity
  8
0
  6
CONTINUOUS
 62
     7
100
AcDbPolyline
 90
        6
 70
   128
 43
0.0
 10
83.18580883129201
 20
498.0183902055001
 10
84.66733666099202
 20
497.8285786105
 10
85.98158357379202
 20
497.2786953549
 10
87.00089541519202
 20
496.407732464
 10
87.60626709959203
 20
495.2802631507
 10
87.73169020229201
 20
494.4202447719
  0
LINE
  5
1A2
330
1F
100
AcDbEntity
  8
0
  6
CONTINUOUS
 62
     7
100
AcDbLine
 10
46.18580883129201
 20
498.0183902055001
 30
0.0
 11
83.18580883129201
 21
498.0183902055001
 31
0.0
  0
LWPOLYLINE
  5
1A3
330
1F
100
AcDbEntity
  8
0
  6
CONTINUOUS
 62
     7
100
AcDbPolyline
 90
        6
 70
   128
 43
0.0
 10
41.63992746029203
 20
494.4202447719
 10
41.90080696699201
 20
495.6483637925
 10
42.64827834679201
 20
496.7094164203
 10
43.80761976439203
 20
497.5028368778001
 10
45.23724454359203
 20
497.9419587583
 10
46.18580883129201
 20
498.0183902055001
  0
ELLIPSE
  5
1A4
330
1F
100
AcDbEntity
  8
0
  6
CONTINUOUS
 62
     7
100
AcDbEllipse
 10
41.99995703259202
 20
469.6000000058
 30
0.0
 11
-0.1810926053304344
 21
41.99999997822882
 31
0.0
210
0.0
220
0.0
230
1.0
 40
0.0074675779
 41
0.9385179941371986
 42
1.155812711916183
  0
ARC
  5
1A5
330
1F
100
AcDbEntity
  8
0
  6
CONTINUOUS
 62
     7
100
AcDbCircle
 10
46.11602354489202
 20
486.6503057341
 30
0.0
 40
4.477656356200702
100
AcDbArc
 50
181.5126030537994
 51
270.8930038288001
  0
LINE
  5
1A6
330
1F
100
AcDbEntity
  8
0
  6
CONTINUOUS
 62
     7
100
AcDbLine
 10
83.18580883129201
 20
482.1731932207
 30
0.0
 11
46.18580883129201
 21
482.1731932207
 31
0.0
  0
ARC
  5
1A7
330
1F
100
AcDbEntity
  8
0
  6
CONTINUOUS
 62
     7
100
AcDbCircle
 10
83.23148316839203
 20
486.6754508623001
 30
0.0
 40
4.502489313300465
100
AcDbArc
 50
269.4187678296999
 51
358.1756252876995
  0
ELLIPSE
  5
1A8
330
1F
100
AcDbEntity
  8
0
  6
CONTINUOUS
 62
     7
100
AcDbEllipse
 10
87.37166062999202
 20
469.6000000058
 30
0.0
 11
0.1810926053304912
 21
41.99999997822882
 31
0.0
210
0.0
220
0.0
230
1.0
 40
0.0074675779
 41
5.127372595263708
 42
5.344667313043053
  0
LWPOLYLINE
  5
1A9
330
1F
100
AcDbEntity
  8
0
  6
CONTINUOUS
 62
     7
100
AcDbPolyline
 90
        6
 70
   128
 43
0.0
 10
123.185808831292
 20
498.0183902055001
 10
124.667336660992
 20
497.8285786105
 10
125.981583573792
 20
497.2786953549
 10
127.000895415192
 20
496.407732464
 10
127.606267099592
 20
495.2802631507
 10
127.731690202292
 20
494.4202447719
  0
LINE
  5
1AA
330
1F
100
AcDbEntity
  8
0
  6
CONTINUOUS
 62
     7
100
AcDbLine
 10
106.185808831292
 20
498.0183902055001
 30
0.0
 11
123.185808831292
 21
498.0183902055001
 31
0.0
  0
LWPOLYLINE
  5
1AB
330
1F
100
AcDbEntity
  8
0
  6
CONTINUOUS
 62
     7
100
AcDbPolyline
 90
        6
 70
   128
 43
0.0
 10
101.639927460292
 20
494.4202447719
 10
101.900806966992
 20
495.6483637925
 10
102.648278346792
 20
496.7094164203
 10
103.807619764392
 20
497.5028368778001
 10
105.237244543592
 20
497.9419587583
 10
106.185808831292
 20
498.0183902055001
  0
ELLIPSE
  5
1AC
330
1F
100
AcDbEntity
  8
0
  6
CONTINUOUS
 62
     7
100
AcDbEllipse
 10
101.999957032592
 20
469.6000000058
 30
0.0
 11
-0.1810926053304344
 21
41.99999997822882
 31
0.0
210
0.0
220
0.0
230
1.0
 40
0.0074675779
 41
0.9385179941372521
 42
1.155812711916222
  0
ARC
  5
1AD
330
1F
100
AcDbEntity
  8
0
  6
CONTINUOUS
 62
     7
100
AcDbCircle
 10
106.116023544892
 20
486.6503057341
 30
0.0
 40
4.477656356200701
100
AcDbArc
 50
181.5126030537994
 51
270.8930038288001
  0
LINE
  5
1AE
330
1F
100
AcDbEntity
  8
0
  6
CONTINUOUS
 62
     7
100
AcDbLine
 10
123.185808831292
 20
482.1731932207
 30
0.0
 11
106.185808831292
 21
482.1731932207
 31
0.0
  0
ARC
  5
1AF
330
1F
100
AcDbEntity
  8
0
  6
CONTINUOUS
 62
     7
100
AcDbCircle
 10
123.231483168392
 20
486.6754508623001
 30
0.0
 40
4.502489313300356
100
AcDbArc
 50
269.4187678296999
 51
358.1756252876995
  0
ELLIPSE
  5
1B0
330
1F
100
AcDbEntity
  8
0
  6
CONTINUOUS
 62
     7
100
AcDbEllipse
 10
127.371660629992
 20
469.6000000058
 30
0.0
 11
0.1810926053304628
 21
41.99999997822882
 31
0.0
210
0.0
220
0.0
230
1.0
 40
0.0074675779
 41
5.127372595263761
 42
5.344667313043096
  0
ARC
  5
1B1
330
1F
100
AcDbEntity
  8
0
  6
CONTINUOUS
 62
     7
100
AcDbCircle
 10
59.75420997439201
 20
499.9214565468001
 30
0.0
 40
0.1650585571457999
100
AcDbArc
 50
171.0817519990063
 51
266.1416326761029
  0
LWPOLYLINE
  5
1B2
330
1F
100
AcDbEntity
  8
0
  6
CONTINUOUS
 62
     7
100
AcDbPolyline
 90
        4
 70
   128
 43
0.0
 10
61.54193205229203
 20
499.5345117272
 10
60.78615662789201
 20
499.6281195605001
 10
60.16535932389203
 20
499.70476502
 10
59.74310312989203
 20
499.7567721053
  0
LINE
  5
1B3
330
1F
100
AcDbEntity
  8
0
  6
CONTINUOUS
 62
     7
100
AcDbLine
 10
61.56673287839203
 20
499.5329791042
 30
0.0
 11
61.54193205229203
 21
499.5345117272
 31
0.0
  0
LINE
  5
1B4
330
1F
100
AcDbEntity
  8
0
  6
CONTINUOUS
 62
     7
100
AcDbLine
 10
67.71578172469202
 20
499.5329791042
 30
0.0
 11
61.56673287839203
 21
499.5329791042
 31
0.0
  0
LINE
  5
1B5
330
1F
100
AcDbEntity
  8
0
  6
CONTINUOUS
 62
     7
100
AcDbLine
 10
67.74058255089201
 20
499.5345117272
 30
0.0
 11
67.71578172469202
 21
499.5329791042
 31
0.0
  0
LWPOLYLINE
  5
1B6
330
1F
100
AcDbEntity
  8
0
  6
CONTINUOUS
 62
     7
100
AcDbPolyline
 90
        4
 70
   128
 43
0.0
 10
69.53941147319202
 20
499.7567721053
 10
68.96981950359202
 20
499.6865944571
 10
68.34902307829202
 20
499.6098967968001
 10
67.74058255089201
 20
499.5345117272
  0
ARC
  5
1B7
330
1F
100
AcDbEntity
  8
0
  6
CONTINUOUS
 62
     7
100
AcDbCircle
 10
69.52692623959203
 20
499.9211468927
 30
0.0
 40
0.1648482689758844
100
AcDbArc
 50
274.3436116804058
 51
9.142332422827534
  0
ARC
  5
1B8
330
1F
100
AcDbEntity
  8
0
  6
CONTINUOUS
 62
     7
100
AcDbCircle
 10
115.960922803292
 20
418.9521323349001
 30
0.0
 40
94.75452743366121
100
AcDbArc
 50
120.4713208644
 51
120.7250966961
  0
ARC
  5
1B9
330
1F
100
AcDbEntity
  8
0
  6
CONTINUOUS
 62
     7
100
AcDbCircle
 10
67.82148537299202
 20
500.7758488186
 30
0.0
 40
0.1798192783812129
100
AcDbArc
 50
299.574938375494
 51
358.6851059348963
  0
LINE
  5
1BA
330
1F
100
AcDbEntity
  8
0
  6
CONTINUOUS
 62
     7
100
AcDbLine
 10
68.00125730159203
 20
502.0965878084
 30
0.0
 11
68.00125730099202
 21
500.7717224668
 31
0.0
  0
LINE
  5
1BB
330
1F
100
AcDbEntity
  8
0
  6
CONTINUOUS
 62
     7
100
AcDbLine
 10
68.79417582209203
 20
502.0965878084
 30
0.0
 11
68.00125730159203
 21
502.0965878084
 31
0.0
  0
ARC
  5
1BC
330
1F
100
AcDbEntity
  8
0
  6
CONTINUOUS
 62
     7
100
AcDbCircle
 10
68.90606963329202
 20
503.8091849424001
 30
0.0
 40
1.716248574093023
100
AcDbArc
 50
266.2618505520002
 51
349.6098162089984
  0
LINE
  5
1BD
330
1F
100
AcDbEntity
  8
0
  6
CONTINUOUS
 62
     7
100
AcDbLine
 10
68.00125730149202
 20
505.0026783493
 30
0.0
 11
68.00125730149202
 21
504.8995362860001
 31
0.0
  0
LWPOLYLINE
  5
1BE
330
1F
100
AcDbEntity
  8
0
  6
CONTINUOUS
 62
     7
100
AcDbPolyline
 90
        4
 70
   128
 43
0.0
 10
61.28125730859202
 20
500.7717224841
 10
61.28125792649203
 20
501.8816439605
 10
61.28125836929203
 20
503.0282716035
 10
61.28125731309203
 20
505.0026783384
  0
ARC
  5
1BF
330
1F
100
AcDbEntity
  8
0
  6
CONTINUOUS
 62
     7
100
AcDbCircle
 10
61.45873820619201
 20
500.774479291
 30
0.0
 40
0.1775023069580085
100
AcDbArc
 50
180.8899025061274
 51
240.8500461410084
  0
ARC
  5
1C0
330
1F
100
AcDbEntity
  8
0
  6
CONTINUOUS
 62
     7
100
AcDbCircle
 10
4.23691327419202
 20
403.5393506181
 30
0.0
 40
112.6454485743726
100
AcDbArc
 50
59.31715891010002
 51
59.52155761300001
  0
LINE
  5
1C1
330
1F
100
AcDbEntity
  8
0
  6
CONTINUOUS
 62
     7
100
AcDbLine
 10
61.74425061119203
 20
500.3914978566
 30
0.0
 11
61.71823958389203
 21
500.4150142815
 31
0.0
  0
LWPOLYLINE
  5
1C2
330
1F
100
AcDbEntity
  8
0
  6
CONTINUOUS
 62
     7
100
AcDbPolyline
 90
        3
 70
   128
 43
0.0
 10
120.163923571892
 20
507.5463189817
 10
120.169255607192
 20
507.5347678605
 10
120.159577259292
 20
507.4837189311
  0
LINE
  5
1C3
330
1F
100
AcDbEntity
  8
0
  6
CONTINUOUS
 62
     7
100
AcDbLine
 10
115.872484843592
 20
501.1331637336
 30
0.0
 11
115.872484842192
 21
502.2574122473001
 31
0.0
  0
LWPOLYLINE
  5
1C4
330
1F
100
AcDbEntity
  8
0
  6
CONTINUOUS
 62
     7
100
AcDbPolyline
 90
        8
 70
   128
 43
0.0
 10
114.867021785192
 20
499.8113332397
 10
114.819801829192
 20
499.8160378504
 10
114.777217879792
 20
499.831429117
 10
114.747983572292
 20
499.8541097308
 10
114.730301477792
 20
499.8816838252001
 10
114.722452580492
 20
499.9296815288
 10
114.744301163792
 20
500.0018065441
 10
114.746070593292
 20
500.0038766641001
  0
LINE
  5
1C5
330
1F
100
AcDbEntity
  8
0
  6
CONTINUOUS
 62
     7
100
AcDbLine
 10
118.568552376592
 20
499.8113332397
 30
0.0
 11
114.867021785192
 21
499.8113332397
 31
0.0
  0
ARC
  5
1C6
330
1F
100
AcDbEntity
  8
0
  6
CONTINUOUS
 62
     7
100
AcDbCircle
 10
118.575536385092
 20
499.9851955847
 30
0.0
 40
0.1740025613877006
100
AcDbArc
 50
267.6996790914969
 51
6.569040642402226
  0
LINE
  5
1C7
330
1F
100
AcDbEntity
  8
0
  6
CONTINUOUS
 62
     7
100
AcDbLine
 10
118.603153902192
 20
501.0280806833
 30
0.0
 11
118.586177110892
 21
500.9930445475001
 31
0.0
  0
ARC
  5
1C8
330
1F
100
AcDbEntity
  8
0
  6
CONTINUOUS
 62
     7
100
AcDbCircle
 10
166.622124787992
 20
460.4946639509
 30
0.0
 40
62.83931442127566
100
AcDbArc
 50
139.2660774436999
 51
139.8318678786999
  0
LINE
  5
1C9
330
1F
100
AcDbEntity
  8
0
  6
CONTINUOUS
 62
     7
100
AcDbLine
 10
119.092814909392
 20
501.6667630034
 30
0.0
 11
119.005752312092
 21
501.5002795318001
 31
0.0
  0
ARC
  5
1CA
330
1F
100
AcDbEntity
  8
0
  6
CONTINUOUS
 62
     7
100
AcDbCircle
 10
216.009107345792
 20
478.1202987643001
 30
0.0
 40
99.7356692351317
100
AcDbArc
 50
166.1163439992001
 51
166.3441935558
  0
LINE
  5
1CB
330
1F
100
AcDbEntity
  8
0
  6
CONTINUOUS
 62
     7
100
AcDbLine
 10
119.183871662692
 20
502.1283431598
 30
0.0
 11
119.187218807392
 21
502.0519852412
 31
0.0
  0
LWPOLYLINE
  5
1CC
330
1F
100
AcDbEntity
  8
0
  6
CONTINUOUS
 62
     7
100
AcDbPolyline
 90
        3
 70
   128
 43
0.0
 10
118.814324248692
 20
502.8618183593001
 10
118.805711511292
 20
502.8249557934
 10
118.792129870792
 20
502.7665599555
  0
LINE
  5
1CD
330
1F
100
AcDbEntity
  8
0
  6
CONTINUOUS
 62
     7
100
AcDbLine
 10
118.814062040392
 20
502.9297740042
 30
0.0
 11
118.814324248692
 21
502.8618183593001
 31
0.0
  0
ARC
  5
1CE
330
1F
100
AcDbEntity
  8
0
  6
CONTINUOUS
 62
     7
100
AcDbCircle
 10
159.962464569992
 20
489.5684143631
 30
0.0
 40
43.64891723782733
100
AcDbArc
 50
155.7674602264
 51
161.6892658628001
  0
LWPOLYLINE
  5
1CF
330
1F
100
AcDbEntity
  8
0
  6
CONTINUOUS
 62
     7
100
AcDbPolyline
 90
        3
 70
   128
 43
0.0
 10
112.168129168792
 20
503.5001374891
 10
111.720609250592
 20
503.343524136
 10
111.183975311392
 20
503.2822689870001
  0
LINE
  5
1D0
330
1F
100
AcDbEntity
  8
0
  6
CONTINUOUS
 62
     7
100
AcDbLine
 10
112.990890765392
 20
504.0771320737
 30
0.0
 11
112.168129168792
 21
503.5001374891
 31
0.0
  0
ARC
  5
1D1
330
1F
100
AcDbEntity
  8
0
  6
CONTINUOUS
 62
     7
100
AcDbCircle
 10
146.259156265392
 20
471.3994771129001
 30
0.0
 40
46.63267763186795
100
AcDbArc
 50
133.2723438139
 51
135.5131263054
  0
LWPOLYLINE
  5
1D2
330
1F
100
AcDbEntity
  8
0
  6
CONTINUOUS
 62
     7
100
AcDbPolyline
 90
        4
 70
   128
 43
0.0
 10
114.301420486592
 20
505.39209127
 10
114.305680477292
 20
505.3855685137
 10
114.305354713092
 20
505.3695598731
 10
114.293995404992
 20
505.3529027764
  0
LINE
  5
1D3
330
1F
100
AcDbEntity
  8
0
  6
CONTINUOUS
 62
     7
100
AcDbLine
 10
109.221919721892
 20
505.3034406599
 30
0.0
 11
109.220010866692
 21
505.3361011805
 31
0.0
  0
ARC
  5
1D4
330
1F
100
AcDbEntity
  8
0
  6
CONTINUOUS
 62
     7
100
AcDbCircle
 10
65.37014522469201
 20
488.6081020884
 30
0.0
 40
46.92240889565196
100
AcDbArc
 50
20.35466090800002
 51
20.84293389760009
  0
LWPOLYLINE
  5
1D5
330
1F
100
AcDbEntity
  8
0
  6
CONTINUOUS
 62
     7
100
AcDbPolyline
 90
        5
 70
   128
 43
0.0
 10
109.991052275392
 20
503.5253563914
 10
109.609463213492
 20
503.7084467649
 10
109.350966706192
 20
503.9505400709
 10
109.216637559192
 20
504.2452608404
 10
109.235570144092
 20
504.5072238124001
  0
LINE
  5
1D6
330
1F
100
AcDbEntity
  8
0
  6
CONTINUOUS
 62
     7
100
AcDbLine
 10
110.379723086692
 20
503.3976637525
 30
0.0
 11
109.991052275392
 21
503.5253563914
 31
0.0
  0
LWPOLYLINE
  5
1D7
330
1F
100
AcDbEntity
  8
0
  6
CONTINUOUS
 62
     7
100
AcDbPolyline
 90
        3
 70
   128
 43
0.0
 10
111.109452251192
 20
503.2822689870001
 10
110.628733609492
 20
503.3312087505
 10
110.379723086692
 20
503.3976637525
  0
LINE
  5
1D8
330
1F
100
AcDbEntity
  8
0
  6
CONTINUOUS
 62
     7
100
AcDbLine
 10
111.183975311392
 20
503.2822689870001
 30
0.0
 11
111.109452251192
 21
503.2822689870001
 31
0.0
  0
LWPOLYLINE
  5
1D9
330
1F
100
AcDbEntity
  8
0
  6
CONTINUOUS
 62
     7
100
AcDbPolyline
 90
        3
 70
   128
 43
0.0
 10
110.060781587792
 20
502.9396023886001
 10
110.059664575392
 20
502.9600523762
 10
110.060617442392
 20
502.9618795490001
  0
ARC
  5
1DA
330
1F
100
AcDbEntity
  8
0
  6
CONTINUOUS
 62
     7
100
AcDbCircle
 10
37.88208798939203
 20
478.9431592259
 30
0.0
 40
76.06308627731512
100
AcDbArc
 50
17.68567890210002
 51
18.38984156720006
  0
ARC
  5
1DB
330
1F
100
AcDbEntity
  8
0
  6
CONTINUOUS
 62
     7
100
AcDbCircle
 10
110.529623121092
 20
502.1193351473
 30
0.0
 40
0.1920526807158467
100
AcDbArc
 50
200.9265727159934
 51
273.8500275344027
  0
LINE
  5
1DC
330
1F
100
AcDbEntity
  8
0
  6
CONTINUOUS
 62
     7
100
AcDbLine
 10
114.318702181492
 20
501.927715887
 30
0.0
 11
110.542518517592
 21
501.927715887
 31
0.0
  0
ARC
  5
1DD
330
1F
100
AcDbEntity
  8
0
  6
CONTINUOUS
 62
     7
100
AcDbCircle
 10
114.327704602692
 20
502.1254196543
 30
0.0
 40
0.1979086233940786
100
AcDbArc
 50
267.3928433546981
 51
337.8306316052009
  0
ARC
  5
1DE
330
1F
100
AcDbEntity
  8
0
  6
CONTINUOUS
 62
     7
100
AcDbCircle
 10
173.322215870492
 20
483.4719568013001
 30
0.0
 40
61.67602746648625
100
AcDbArc
 50
159.2696485733
 51
162.4683950382
  0
LWPOLYLINE
  5
1DF
330
1F
100
AcDbEntity
  8
0
  6
CONTINUOUS
 62
     7
100
AcDbPolyline
 90
        3
 70
   128
 43
0.0
 10
115.639606184992
 20
505.3362906095
 10
115.642000073192
 20
505.3125422182001
 10
115.639300880492
 20
505.3034405415
  0
LINE
  5
1E0
330
1F
100
AcDbEntity
  8
0
  6
CONTINUOUS
 62
     7
100
AcDbLine
 10
25.71407400339201
 20
453.1000000058
 30
0.0
 11
143.657543659192
 21
453.1000000058
 31
0.0
  0
ARC
  5
1E1
330
1F
100
AcDbEntity
  8
0
  6
CONTINUOUS
 62
     7
100
AcDbCircle
 10
123.235444558592
 20
486.4565653456
 30
0.0
 40
3.99818326357057
100
AcDbArc
 50
269.2886792429
 51
358.2249369927007
  0
LWPOLYLINE
  5
1E2
330
1F
100
AcDbEntity
  8
0
  6
CONTINUOUS
 62
     7
100
AcDbPolyline
 90
        9
 70
   128
 43
0.0
 10
127.731690202292
 20
486.5321097688001
 10
127.634676923092
 20
486.5283631445
 10
127.541350874292
 20
486.517097648
 10
127.455259143992
 20
486.4987414524001
 10
127.379673861892
 20
486.4739922306001
 10
127.317467834192
 20
486.443790638
 10
127.271005355392
 20
486.4092845612
 10
127.242052347292
 20
486.3717854892
 10
127.231709240692
 20
486.3327186674001
  0
ARC
  5
1E3
330
1F
100
AcDbEntity
  8
0
  6
CONTINUOUS
 62
     7
100
AcDbCircle
 10
83.23544455859201
 20
486.4565653456
 30
0.0
 40
3.99818326357074
100
AcDbArc
 50
269.2886792429001
 51
358.2249369927007
  0
LWPOLYLINE
  5
1E4
330
1F
100
AcDbEntity
  8
0
  6
CONTINUOUS
 62
     7
100
AcDbPolyline
 90
        9
 70
   128
 43
0.0
 10
87.73169020229201
 20
486.5321097688001
 10
87.63467692309203
 20
486.5283631445
 10
87.54135087429202
 20
486.517097648
 10
87.45525914399201
 20
486.4987414524001
 10
87.37967386189203
 20
486.4739922306001
 10
87.31746783419203
 20
486.443790638
 10
87.27100535539202
 20
486.4092845612
 10
87.24205234729203
 20
486.3717854892
 10
87.23170924069203
 20
486.3327186674001
  0
ARC
  5
1E5
330
1F
100
AcDbEntity
  8
0
  6
CONTINUOUS
 62
     7
100
AcDbCircle
 10
106.135946692492
 20
486.4563288894
 30
0.0
 40
3.997949642949831
100
AcDbArc
 50
181.7717764195994
 51
270.7146073446999
  0
LWPOLYLINE
  5
1E6
330
1F
100
AcDbEntity
  8
0
  6
CONTINUOUS
 62
     7
100
AcDbPolyline
 90
        9
 70
   128
 43
0.0
 10
102.139908421892
 20
486.3327186674001
 10
102.129565315292
 20
486.3717854892
 10
102.100612307192
 20
486.4092845612
 10
102.054149828392
 20
486.443790638
 10
101.991943800692
 20
486.4739922306001
 10
101.916358518592
 20
486.4987414524001
 10
101.830266788292
 20
486.517097648
 10
101.736940739492
 20
486.5283631445
 10
101.639927460292
 20
486.5321097688001
  0
ARC
  5
1E7
330
1F
100
AcDbEntity
  8
0
  6
CONTINUOUS
 62
     7
100
AcDbCircle
 10
46.13594669249201
 20
486.4563288894
 30
0.0
 40
3.997949642949831
100
AcDbArc
 50
181.7717764195994
 51
270.7146073446999
  0
LWPOLYLINE
  5
1E8
330
1F
100
AcDbEntity
  8
0
  6
CONTINUOUS
 62
     7
100
AcDbPolyline
 90
        9
 70
   128
 43
0.0
 10
42.13990842189202
 20
486.3327186674001
 10
42.12956531529201
 20
486.3717854892
 10
42.10061230719202
 20
486.4092845612
 10
42.05414982839201
 20
486.443790638
 10
41.99194380069201
 20
486.4739922306001
 10
41.91635851859203
 20
486.4987414524001
 10
41.83026678829202
 20
486.517097648
 10
41.73694073949201
 20
486.5283631445
 10
41.63992746029203
 20
486.5321097688001
  0
ARC
  5
1E9
330
1F
100
AcDbEntity
  8
0
  6
CONTINUOUS
 62
     7
100
AcDbCircle
 10
162.372683796492
 20
502.4778331607
 30
0.0
 40
6.999999999999978
100
AcDbArc
 50
0.9999999999999172
 51
70.32062295779996
  0
LINE
  5
1EA
330
1F
100
AcDbEntity
  8
0
  6
CONTINUOUS
 62
     7
100
AcDbLine
 10
169.371617662592
 20
502.6000000058
 30
0.0
 11
169.371617662592
 21
469.6000000058
 31
0.0
  0
LINE
  5
1EB
330
1F
100
AcDbEntity
  8
0
  6
CONTINUOUS
 62
     7
100
AcDbLine
 10
-0.0000000000079865
 20
502.6000000058
 30
0.0
 11
-0.0000000000079865
 21
469.6000000058
 31
0.0
  0
ARC
  5
1EC
330
1F
100
AcDbEntity
  8
0
  6
CONTINUOUS
 62
     7
100
AcDbCircle
 10
6.998539541992017
 20
502.4781160974001
 30
0.0
 40
6.999600803476167
100
AcDbArc
 50
109.6771177274
 51
179.0022593148001
  0
ELLIPSE
  5
1ED
330
1F
100
AcDbEntity
  8
0
  6
CONTINUOUS
 62
     7
100
AcDbEllipse
 10
42.49993799409202
 20
469.6021816397
 30
0.0
 11
-0.181092850144836
 21
41.49999997743237
 31
0.0
210
0.0
220
0.0
230
1.0
 40
0.0075575453
 41
0.9385172135741433
 42
1.155811931353119
  0
LWPOLYLINE
  5
1EE
330
1F
100
AcDbEntity
  8
0
  6
CONTINUOUS
 62
     7
100
AcDbPolyline
 90
        9
 70
   128
 43
0.0
 10
42.13990842189202
 20
494.1269473014
 10
42.12956531529201
 20
494.1842351467
 10
42.10061230719202
 20
494.2392627069
 10
42.05414982839201
 20
494.289938523
 10
41.99194380069201
 20
494.3343365349
 10
41.91635851859203
 20
494.370769286
 10
41.83026678829202
 20
494.3978520592
 10
41.73694073949201
 20
494.4145555065001
 10
41.63992746029203
 20
494.4202447719
  0
ELLIPSE
  5
1EF
330
1F
100
AcDbEntity
  8
0
  6
CONTINUOUS
 62
     7
100
AcDbEllipse
 10
86.87167966849202
 20
469.6021816397
 30
0.0
 11
0.1810928501448643
 21
41.49999997743237
 31
0.0
210
0.0
220
0.0
230
1.0
 40
0.0075575453
 41
5.127373375826748
 42
5.344668093606086
  0
LWPOLYLINE
  5
1F0
330
1F
100
AcDbEntity
  8
0
  6
CONTINUOUS
 62
     7
100
AcDbPolyline
 90
        9
 70
   128
 43
0.0
 10
87.73169020229201
 20
494.4202447719
 10
87.63467692309203
 20
494.4145555065001
 10
87.54135087429202
 20
494.3978520592
 10
87.45525914399201
 20
494.370769286
 10
87.37967386189203
 20
494.3343365349
 10
87.31746783419203
 20
494.289938523
 10
87.27100535539202
 20
494.2392627069
 10
87.24205234729203
 20
494.1842351467
 10
87.23170924069203
 20
494.1269473014
  0
ELLIPSE
  5
1F1
330
1F
100
AcDbEntity
  8
0
  6
CONTINUOUS
 62
     7
100
AcDbEllipse
 10
126.871679668492
 20
469.6021816397
 30
0.0
 11
0.181092850144836
 21
41.49999997743237
 31
0.0
210
0.0
220
0.0
230
1.0
 40
0.0075575453
 41
5.127373375826872
 42
5.344668093606213
  0
LWPOLYLINE
  5
1F2
330
1F
100
AcDbEntity
  8
0
  6
CONTINUOUS
 62
     7
100
AcDbPolyline
 90
        9
 70
   128
 43
0.0
 10
127.731690202292
 20
494.4202447719
 10
127.634676923092
 20
494.4145555065001
 10
127.541350874292
 20
494.3978520592
 10
127.455259143992
 20
494.370769286
 10
127.379673861892
 20
494.3343365349
 10
127.317467834192
 20
494.289938523
 10
127.271005355392
 20
494.2392627069
 10
127.242052347292
 20
494.1842351467
 10
127.231709240692
 20
494.1269473014
  0
ELLIPSE
  5
1F3
330
1F
100
AcDbEntity
  8
0
  6
CONTINUOUS
 62
     7
100
AcDbEllipse
 10
102.499937994092
 20
469.6021816397
 30
0.0
 11
-0.1810928501448643
 21
41.49999997743237
 31
0.0
210
0.0
220
0.0
230
1.0
 40
0.0075575453
 41
0.938517213574122
 42
1.155811931353108
  0
LWPOLYLINE
  5
1F4
330
1F
100
AcDbEntity
  8
0
  6
CONTINUOUS
 62
     7
100
AcDbPolyline
 90
        9
 70
   128
 43
0.0
 10
102.139908421892
 20
494.1269473014
 10
102.129565315292
 20
494.1842351467
 10
102.100612307192
 20
494.2392627069
 10
102.054149828392
 20
494.289938523
 10
101.991943800692
 20
494.3343365349
 10
101.916358518592
 20
494.370769286
 10
101.830266788292
 20
494.3978520592
 10
101.736940739492
 20
494.4145555065001
 10
101.639927460292
 20
494.4202447719
  0
LINE
  5
1F5
330
1F
100
AcDbEntity
  8
0
  6
CONTINUOUS
 62
     7
100
AcDbLine
 10
127.185808831292
 20
486.0833160703
 30
0.0
 11
127.185808831292
 21
491.4971143228
 31
0.0
  0
LINE
  5
1F6
330
1F
100
AcDbEntity
  8
0
  6
CONTINUOUS
 62
     7
100
AcDbLine
 10
127.231709240692
 20
494.1269473014
 30
0.0
 11
127.185808831292
 21
491.4971143228
 31
0.0
  0
LINE
  5
1F7
330
1F
100
AcDbEntity
  8
0
  6
CONTINUOUS
 62
     7
100
AcDbLine
 10
102.185808831292
 20
485.972059159
 30
0.0
 11
102.185808831292
 21
491.4971143228
 31
0.0
  0
LINE
  5
1F8
330
1F
100
AcDbEntity
  8
0
  6
CONTINUOUS
 62
     7
100
AcDbLine
 10
102.185808831292
 20
491.4971143228
 30
0.0
 11
102.139908421892
 21
494.1269473014
 31
0.0
  0
LINE
  5
1F9
330
1F
100
AcDbEntity
  8
0
  6
CONTINUOUS
 62
     7
100
AcDbLine
 10
87.18580883129201
 20
486.0833160703
 30
0.0
 11
87.18580883129201
 21
491.4971143228
 31
0.0
  0
LINE
  5
1FA
330
1F
100
AcDbEntity
  8
0
  6
CONTINUOUS
 62
     7
100
AcDbLine
 10
87.23170924069203
 20
494.1269473014
 30
0.0
 11
87.18580883129201
 21
491.4971143228
 31
0.0
  0
LINE
  5
1FB
330
1F
100
AcDbEntity
  8
0
  6
CONTINUOUS
 62
     7
100
AcDbLine
 10
42.18580883129201
 20
485.972059159
 30
0.0
 11
42.18580883129201
 21
491.4971143228
 31
0.0
  0
LINE
  5
1FC
330
1F
100
AcDbEntity
  8
0
  6
CONTINUOUS
 62
     7
100
AcDbLine
 10
42.18580883129201
 20
491.4971143228
 30
0.0
 11
42.13990842189202
 21
494.1269473014
 31
0.0
  0
LINE
  5
1FD
330
1F
100
AcDbEntity
  8
0
  6
CONTINUOUS
 62
     7
100
AcDbLine
 10
106.185808831292
 20
498.0183902055001
 30
0.0
 11
106.185808831292
 21
497.2492614563
 31
0.0
  0
ARC
  5
1FE
330
1F
100
AcDbEntity
  8
0
  6
CONTINUOUS
 62
     7
100
AcDbCircle
 10
105.749729901892
 20
493.6318336692
 30
0.0
 40
3.643617519286986
100
AcDbArc
 50
83.12619434730013
 51
172.1901911826995
  0
ARC
  5
1FF
330
1F
100
AcDbEntity
  8
0
  6
CONTINUOUS
 62
     7
100
AcDbCircle
 10
123.615070206392
 20
493.62299947
 30
0.0
 40
3.651580660674912
100
AcDbArc
 50
7.932601871400688
 51
96.75101259859977
  0
LINE
  5
200
330
1F
100
AcDbEntity
  8
0
  6
CONTINUOUS
 62
     7
100
AcDbLine
 10
123.185808831292
 20
498.0183902055001
 30
0.0
 11
123.185808831292
 21
497.2492614563
 31
0.0
  0
ARC
  5
201
330
1F
100
AcDbEntity
  8
0
  6
CONTINUOUS
 62
     7
100
AcDbCircle
 10
105.381657385092
 20
491.4601631174
 30
0.0
 40
3.196062166278589
100
AcDbArc
 50
138.6294354833999
 51
179.3375612942006
  0
ARC
  5
202
330
1F
100
AcDbEntity
  8
0
  6
CONTINUOUS
 62
     7
100
AcDbCircle
 10
45.37877950719201
 20
491.4608443161001
 30
0.0
 40
3.19317667075001
100
AcDbArc
 50
139.1288935412999
 51
179.3491863407013
  0
LINE
  5
203
330
1F
100
AcDbEntity
  8
0
  6
CONTINUOUS
 62
     7
100
AcDbLine
 10
169.371617662592
 20
469.6000000058
 30
0.0
 11
169.685808831292
 21
469.6000000058
 31
0.0
  0
LINE
  5
204
330
1F
100
AcDbEntity
  8
0
  6
CONTINUOUS
 62
     7
100
AcDbLine
 10
169.685808831292
 20
453.1000000058
 30
0.0
 11
169.685808831292
 21
469.6000000058
 31
0.0
  0
LINE
  5
205
330
1F
100
AcDbEntity
  8
0
  6
CONTINUOUS
 62
     7
100
AcDbLine
 10
169.371617662592
 20
453.1000000058
 30
0.0
 11
169.685808831292
 21
453.1000000058
 31
0.0
  0
LINE
  5
206
330
1F
100
AcDbEntity
  8
0
  6
CONTINUOUS
 62
     7
100
AcDbLine
 10
169.371617662592
 20
502.6000000058
 30
0.0
 11
169.685808831292
 21
484.6000000058
 31
0.0
  0
LINE
  5
207
330
1F
100
AcDbEntity
  8
0
  6
CONTINUOUS
 62
     7
100
AcDbLine
 10
169.685808831292
 20
484.6000000058
 30
0.0
 11
169.685808831292
 21
469.6000000058
 31
0.0
  0
LINE
  5
208
330
1F
100
AcDbEntity
  8
0
  6
CONTINUOUS
 62
     7
100
AcDbLine
 10
-0.0000000000079865
 20
469.6000000058
 30
0.0
 11
-0.3141911687079784
 21
469.6000000058
 31
0.0
  0
LINE
  5
209
330
1F
100
AcDbEntity
  8
0
  6
CONTINUOUS
 62
     7
100
AcDbLine
 10
-0.3141911687079784
 20
484.6000000058
 30
0.0
 11
-0.3141911687079784
 21
469.6000000058
 31
0.0
  0
LINE
  5
20A
330
1F
100
AcDbEntity
  8
0
  6
CONTINUOUS
 62
     7
100
AcDbLine
 10
-0.3141911687079784
 20
484.6000000058
 30
0.0
 11
-0.0000000000079865
 21
502.6000000058
 31
0.0
  0
LINE
  5
20B
330
1F
100
AcDbEntity
  8
0
  6
CONTINUOUS
 62
     7
100
AcDbLine
 10
-0.3141911687079784
 20
469.6000000058
 30
0.0
 11
-0.3141911687079784
 21
453.1000000058
 31
0.0
  0
LINE
  5
20C
330
1F
100
AcDbEntity
  8
0
  6
CONTINUOUS
 62
     7
100
AcDbLine
 10
-0.0000000000079865
 20
453.1000000058
 30
0.0
 11
-0.3141911687079784
 21
453.1000000058
 31
0.0
  0
LINE
  5
20D
330
1F
100
AcDbEntity
  8
0
  6
CONTINUOUS
 62
     7
100
AcDbLine
 10
123.185808831292
 20
497.2492614563
 30
0.0
 11
106.185808831292
 21
497.2492614563
 31
0.0
  0
LINE
  5
20E
330
1F
100
AcDbEntity
  8
0
  6
CONTINUOUS
 62
     7
100
AcDbLine
 10
67.74042917429202
 20
499.8168857135
 30
0.0
 11
67.74058255089201
 21
499.5345117272
 31
0.0
  0
LINE
  5
20F
330
1F
100
AcDbEntity
  8
0
  6
CONTINUOUS
 62
     7
100
AcDbLine
 10
67.71578172469202
 20
499.5329791042
 30
0.0
 11
67.71562832579201
 21
499.8153676627001
 31
0.0
  0
LINE
  5
210
330
1F
100
AcDbEntity
  8
0
  6
CONTINUOUS
 62
     7
100
AcDbLine
 10
67.71562832579201
 20
499.8153676627001
 30
0.0
 11
67.74042917429202
 21
499.8168857135
 31
0.0
  0
LINE
  5
211
330
1F
100
AcDbEntity
  8
0
  6
CONTINUOUS
 62
     7
100
AcDbLine
 10
61.56688627739203
 20
499.8153676627001
 30
0.0
 11
61.56673287839203
 21
499.5329791042
 31
0.0
  0
LINE
  5
212
330
1F
100
AcDbEntity
  8
0
  6
CONTINUOUS
 62
     7
100
AcDbLine
 10
61.54193205229203
 20
499.5345117272
 30
0.0
 11
61.54208542889202
 21
499.8168857135
 31
0.0
  0
LINE
  5
213
330
1F
100
AcDbEntity
  8
0
  6
CONTINUOUS
 62
     7
100
AcDbLine
 10
61.54208542889202
 20
499.8168857135
 30
0.0
 11
61.56688627739203
 21
499.8153676627001
 31
0.0
  0
LINE
  5
214
330
1F
100
AcDbEntity
  8
0
  6
CONTINUOUS
 62
     7
100
AcDbLine
 10
61.56688627739203
 20
499.8153676627001
 30
0.0
 11
67.71562832579201
 21
499.8153676627001
 31
0.0
  0
LWPOLYLINE
  5
215
330
1F
100
AcDbEntity
  8
0
  6
CONTINUOUS
 62
     7
100
AcDbPolyline
 90
        7
 70
   128
 43
0.0
 10
68.68422692469201
 20
504.4186284176
 10
68.94159546769203
 20
504.3926603616001
 10
69.16894202779201
 20
504.3202132380001
 10
69.35896723449201
 20
504.2054342932
 10
69.50614714229201
 20
504.0396980458
 10
69.57739274209203
 20
503.8200538866
 10
69.57868069529201
 20
503.785090242
  0
LINE
  5
216
330
1F
100
AcDbEntity
  8
0
  6
CONTINUOUS
 62
     7
100
AcDbLine
 10
68.68422692469201
 20
504.4186284176
 30
0.0
 11
68.49607413889203
 21
504.4186284176
 31
0.0
  0
LWPOLYLINE
  5
217
330
1F
100
AcDbEntity
  8
0
  6
CONTINUOUS
 62
     7
100
AcDbPolyline
 90
        6
 70
   128
 43
0.0
 10
67.99911799119201
 20
504.0709716922
 10
68.04249165069203
 20
504.2145792571
 10
68.14244555229203
 20
504.3166073363
 10
68.26828506699201
 20
504.3806248047
 10
68.42680320919203
 20
504.4153035377
 10
68.49607413889203
 20
504.4186284176
  0
LWPOLYLINE
  5
218
330
1F
100
AcDbEntity
  8
0
  6
CONTINUOUS
 62
     7
100
AcDbPolyline
 90
        5
 70
   128
 43
0.0
 10
67.99911799119201
 20
504.0709716922
 10
67.99911794579202
 20
504.0702458426
 10
67.99909547579202
 20
503.7146567592
 10
67.99907207379201
 20
503.3519355084001
 10
67.99906148459203
 20
503.1903301284
  0
LWPOLYLINE
  5
219
330
1F
100
AcDbEntity
  8
0
  6
CONTINUOUS
 62
     7
100
AcDbPolyline
 90
        6
 70
   128
 43
0.0
 10
68.49886070649202
 20
502.8851939903
 10
68.33347629709203
 20
502.902498967
 10
68.18673728599202
 20
502.9523833879
 10
68.07518518859203
 20
503.0290013785
 10
68.01133231769202
 20
503.1234997745
 10
67.99906148459203
 20
503.1903301284
  0
LINE
  5
21A
330
1F
100
AcDbEntity
  8
0
  6
CONTINUOUS
 62
     7
100
AcDbLine
 10
68.49886070649202
 20
502.8851939903
 30
0.0
 11
68.67910911289201
 21
502.8851939903
 31
0.0
  0
LWPOLYLINE
  5
21B
330
1F
100
AcDbEntity
  8
0
  6
CONTINUOUS
 62
     7
100
AcDbPolyline
 90
        6
 70
   128
 43
0.0
 10
69.57870343399202
 20
503.4311094855
 10
69.52796455729202
 20
503.2519492157001
 10
69.38131101079202
 20
503.0915661272001
 10
69.15550795959203
 20
502.9689537079
 10
68.87615814459201
 20
502.8986210378
 10
68.67910911289201
 20
502.8851939903
  0
LWPOLYLINE
  5
21C
330
1F
100
AcDbEntity
  8
0
  6
CONTINUOUS
 62
     7
100
AcDbPolyline
 90
        3
 70
   128
 43
0.0
 10
69.57870343399202
 20
503.4311094855
 10
69.57868518269203
 20
503.7146567592
 10
69.57868069529201
 20
503.785090242
  0
ARC
  5
21D
330
1F
100
AcDbEntity
  8
0
  6
CONTINUOUS
 62
     7
100
AcDbCircle
 10
61.67130806819202
 20
500.5397937802001
 30
0.0
 40
0.1530220975791797
100
AcDbArc
 50
345.2609071284795
 51
60.98434534440155
  0
ARC
  5
21E
330
1F
100
AcDbEntity
  8
0
  6
CONTINUOUS
 62
     7
100
AcDbCircle
 10
3.670057422692025
 20
401.9707868384
 30
0.0
 40
114.5207749147904
100
AcDbArc
 50
59.52799098129997
 51
59.7430532324
  0
ARC
  5
21F
330
1F
100
AcDbEntity
  8
0
  6
CONTINUOUS
 62
     7
100
AcDbCircle
 10
61.46094896849203
 20
501.0458792274001
 30
0.0
 40
0.1773904991079707
100
AcDbArc
 50
181.3044369532921
 51
240.8851590267013
  0
LWPOLYLINE
  5
220
330
1F
100
AcDbEntity
  8
0
  6
CONTINUOUS
 62
     7
100
AcDbPolyline
 90
        4
 70
   128
 43
0.0
 10
61.28333083299202
 20
505.157181494
 10
61.28338628919201
 20
504.2473221397
 10
61.28345595789202
 20
503.1633918824
 10
61.28360444029201
 20
501.0418409765
  0
LWPOLYLINE
  5
221
330
1F
100
AcDbEntity
  8
0
  6
CONTINUOUS
 62
     7
100
AcDbPolyline
 90
        6
 70
   128
 43
0.0
 10
61.48306871729201
 20
505.2652880513
 10
61.41736658499201
 20
505.2592975842
 10
61.35907414219201
 20
505.2420141372
 10
61.31451328029203
 20
505.2152976869
 10
61.28857976489203
 20
505.1818834446
 10
61.28333083299202
 20
505.157181494
  0
LINE
  5
222
330
1F
100
AcDbEntity
  8
0
  6
CONTINUOUS
 62
     7
100
AcDbLine
 10
67.79944591669201
 20
505.2652880513
 30
0.0
 11
61.48306871729201
 21
505.2652880513
 31
0.0
  0
LWPOLYLINE
  5
223
330
1F
100
AcDbEntity
  8
0
  6
CONTINUOUS
 62
     7
100
AcDbPolyline
 90
        6
 70
   128
 43
0.0
 10
67.99918380439203
 20
505.1571815122001
 10
67.98777356549203
 20
505.1932990263
 10
67.95474927199203
 20
505.225270686
 10
67.90398684829202
 20
505.2493580404
 10
67.84166284209203
 20
505.262856713
 10
67.79944591669201
 20
505.2652880513
  0
LWPOLYLINE
  5
224
330
1F
100
AcDbEntity
  8
0
  6
CONTINUOUS
 62
     7
100
AcDbPolyline
 90
        4
 70
   128
 43
0.0
 10
67.99917154549203
 20
504.8995362860001
 10
67.99917405079202
 20
504.9918368026
 10
67.99917947339202
 20
505.0835700439001
 10
67.99918380439203
 20
505.1571815122001
  0
LINE
  5
225
330
1F
100
AcDbEntity
  8
0
  6
CONTINUOUS
 62
     7
100
AcDbLine
 10
68.79417582209203
 20
504.8995362860001
 30
0.0
 11
67.99917154549203
 21
504.8995362860001
 31
0.0
  0
LWPOLYLINE
  5
226
330
1F
100
AcDbEntity
  8
0
  6
CONTINUOUS
 62
     7
100
AcDbPolyline
 90
        6
 70
   128
 43
0.0
 10
70.59417582209201
 20
503.8763263385
 10
70.49205962199201
 20
504.2226735964
 10
70.19739373929201
 20
504.5241684662
 10
69.74285241199203
 20
504.7497020389001
 10
69.18162606389203
 20
504.8762353873
 10
68.79417582209203
 20
504.8995362860001
  0
LINE
  5
227
330
1F
100
AcDbEntity
  8
0
  6
CONTINUOUS
 62
     7
100
AcDbLine
 10
70.59417582209201
 20
503.7487133132
 30
0.0
 11
70.59417582209201
 21
503.8763263385
 31
0.0
  0
ARC
  5
228
330
1F
100
AcDbEntity
  8
0
  6
CONTINUOUS
 62
     7
100
AcDbCircle
 10
68.96210747789203
 20
503.9991130714
 30
0.0
 40
1.6511653821084
100
AcDbArc
 50
264.1626437382993
 51
351.2774228707004
  0
LINE
  5
229
330
1F
100
AcDbEntity
  8
0
  6
CONTINUOUS
 62
     7
100
AcDbLine
 10
67.99900514879201
 20
502.3565096263001
 30
0.0
 11
68.79417582209203
 21
502.3565096263001
 31
0.0
  0
LWPOLYLINE
  5
22A
330
1F
100
AcDbEntity
  8
0
  6
CONTINUOUS
 62
     7
100
AcDbPolyline
 90
        4
 70
   128
 43
0.0
 10
67.998910169492
 20
501.0418409592
 10
67.99892990599201
 20
501.3062246238001
 10
67.99895603489202
 20
501.6632158837
 10
67.99900514879201
 20
502.3565096263001
  0
ARC
  5
22B
330
1F
100
AcDbEntity
  8
0
  6
CONTINUOUS
 62
     7
100
AcDbCircle
 10
67.82328228069201
 20
501.0448439012
 30
0.0
 40
0.1756535595954591
100
AcDbArc
 50
298.7899630387135
 51
359.0204338329112
  0
ARC
  5
22C
330
1F
100
AcDbEntity
  8
0
  6
CONTINUOUS
 62
     7
100
AcDbCircle
 10
125.658208874492
 20
401.8926340565
 30
0.0
 40
114.6113345931414
100
AcDbArc
 50
120.2570165618
 51
120.5172543566
  0
ARC
  5
22D
330
1F
100
AcDbEntity
  8
0
  6
CONTINUOUS
 62
     7
100
AcDbCircle
 10
-37.96998841750798
 20
473.1334322107
 30
0.0
 40
108.9548647613384
100
AcDbArc
 50
14.53275054400003
 51
14.61628402370001
  0
ARC
  5
22E
330
1F
100
AcDbEntity
  8
0
  6
CONTINUOUS
 62
     7
100
AcDbCircle
 10
67.67997781289202
 20
500.5565030734
 30
0.0
 40
0.1991470635523025
100
AcDbArc
 50
204.5238769005955
 51
284.8305960755011
  0
ELLIPSE
  5
22F
330
1F
100
AcDbEntity
  8
0
  6
CONTINUOUS
 62
     7
100
AcDbEllipse
 10
81.07808114919203
 20
469.6000000058
 30
0.0
 11
239.2997592372473
 21
27.61984461201218
 31
0.0
210
0.0
220
0.0
230
1.0
 40
0.1333301149999999
 41
1.604330861111684
 42
1.611206774073196
  0
ARC
  5
230
330
1F
100
AcDbEntity
  8
0
  6
CONTINUOUS
 62
     7
100
AcDbCircle
 10
69.41809070069203
 20
500.3556563965
 30
0.0
 40
0.2108242043679006
100
AcDbArc
 50
26.97168574060126
 51
101.9903734952992
  0
ELLIPSE
  5
231
330
1F
100
AcDbEntity
  8
0
  6
CONTINUOUS
 62
     7
100
AcDbEllipse
 10
69.21349297339202
 20
469.6000000058
 30
0.0
 11
-4.870123808074226
 21
42.19500403056436
 31
0.0
210
0.0
220
0.0
230
1.0
 40
0.133330115
 41
5.509821933273884
 42
5.516894390910076
  0
ARC
  5
232
330
1F
100
AcDbEntity
  8
0
  6
CONTINUOUS
 62
     7
100
AcDbCircle
 10
69.49316086129201
 20
500.2035474611
 30
0.0
 40
0.1709457346098118
100
AcDbArc
 50
275.0709910961041
 51
14.67991970230285
  0
LWPOLYLINE
  5
233
330
1F
100
AcDbEntity
  8
0
  6
CONTINUOUS
 62
     7
100
AcDbPolyline
 90
        4
 70
   128
 43
0.0
 10
67.74042917429202
 20
499.8168857135
 10
68.49631337869201
 20
499.909619538
 10
69.26455415079201
 20
500.0035431697
 10
69.50827075289203
 20
500.0332708175
  0
LWPOLYLINE
  5
234
330
1F
100
AcDbEntity
  8
0
  6
CONTINUOUS
 62
     7
100
AcDbPolyline
 90
        4
 70
   128
 43
0.0
 10
59.77424385019202
 20
500.0332708175
 10
60.34391385609203
 20
499.9637328825
 10
60.94917706609203
 20
499.8896521598
 10
61.54208542889202
 20
499.8168857135
  0
ARC
  5
235
330
1F
100
AcDbEntity
  8
0
  6
CONTINUOUS
 62
     7
100
AcDbCircle
 10
59.79028820639203
 20
500.2042048120001
 30
0.0
 40
0.17168532798677
100
AcDbArc
 50
165.6113250935232
 51
264.637764108196
  0
ELLIPSE
  5
236
330
1F
100
AcDbEntity
  8
0
  6
CONTINUOUS
 62
     7
100
AcDbEllipse
 10
60.06902162979202
 20
469.6000000058
 30
0.0
 11
4.87012380807377
 21
42.19500403056435
 31
0.0
210
0.0
220
0.0
230
1.0
 40
0.133330115
 41
0.7662909162695649
 42
0.7733633739057192
  0
ARC
  5
237
330
1F
100
AcDbEntity
  8
0
  6
CONTINUOUS
 62
     7
100
AcDbCircle
 10
59.85814637309201
 20
500.3688063038001
 30
0.0
 40
0.1994627626235909
100
AcDbArc
 50
75.4601759303941
 51
155.5777648331201
  0
ELLIPSE
  5
238
330
1F
100
AcDbEntity
  8
0
  6
CONTINUOUS
 62
     7
100
AcDbEllipse
 10
48.20443345399201
 20
469.6000000058
 30
0.0
 11
239.2997592372463
 21
-27.61984461201217
 31
0.0
210
0.0
220
0.0
230
1.0
 40
0.133330115
 41
1.53026675646415
 42
1.537261792478109
  0
ARC
  5
239
330
1F
100
AcDbEntity
  8
0
  6
CONTINUOUS
 62
     7
100
AcDbCircle
 10
61.62369719749202
 20
500.5667052217
 30
0.0
 40
0.2107306683457962
100
AcDbArc
 50
258.0399986737029
 51
333.1557230488913
  0
ELLIPSE
  5
23A
330
1F
100
AcDbEntity
  8
0
  6
CONTINUOUS
 62
     7
100
AcDbEllipse
 10
62.19897639119202
 20
469.6000000058
 30
0.0
 11
4.870123808073515
 21
42.19500403056435
 31
0.0
210
0.0
220
0.0
230
1.0
 40
0.133330115
 41
0.764567154002378
 42
0.7655866459238735
  0
LINE
  5
23B
330
1F
100
AcDbEntity
  8
0
  6
CONTINUOUS
 62
     7
100
AcDbLine
 10
59.77424385019202
 20
500.0332708175
 30
0.0
 11
59.74310312989203
 21
499.7567721053
 31
0.0
  0
LINE
  5
23C
330
1F
100
AcDbEntity
  8
0
  6
CONTINUOUS
 62
     7
100
AcDbLine
 10
69.53941147319202
 20
499.7567721053
 30
0.0
 11
69.50827075289203
 21
500.0332708175
 31
0.0
  0
LINE
  5
23D
330
1F
100
AcDbEntity
  8
0
  6
CONTINUOUS
 62
     7
100
AcDbLine
 10
115.020304804092
 20
500.0910990025001
 30
0.0
 11
114.867021785192
 21
499.8113332397
 31
0.0
  0
LWPOLYLINE
  5
23E
330
1F
100
AcDbEntity
  8
0
  6
CONTINUOUS
 62
     7
100
AcDbPolyline
 90
        8
 70
   128
 43
0.0
 10
114.978997128892
 20
500.3758659515
 10
114.896047870192
 20
500.2787347494
 10
114.875532696492
 20
500.2140166888
 10
114.881087594692
 20
500.1661993920001
 10
114.900786749592
 20
500.1337603536
 10
114.936182713192
 20
500.1080528007
 10
114.975690363992
 20
500.0952224859
 10
115.020304804092
 20
500.0910990025001
  0
ELLIPSE
  5
23F
330
1F
100
AcDbEntity
  8
0
  6
CONTINUOUS
 62
     7
100
AcDbEllipse
 10
116.949767591392
 20
469.6000000058
 30
0.0
 11
30.61851857556368
 21
39.82247888299639
 31
0.0
210
0.0
220
0.0
230
1.0
 40
0.4560836067
 41
1.066930292908761
 42
1.090791433362674
  0
LWPOLYLINE
  5
240
330
1F
100
AcDbEntity
  8
0
  6
CONTINUOUS
 62
     7
100
AcDbPolyline
 90
        3
 70
   128
 43
0.0
 10
115.874823161992
 20
501.1419607487001
 10
115.862681942792
 20
501.0962841246001
 10
115.827633558092
 20
501.0559973721
  0
LWPOLYLINE
  5
241
330
1F
100
AcDbEntity
  8
0
  6
CONTINUOUS
 62
     7
100
AcDbPolyline
 90
        5
 70
   128
 43
0.0
 10
115.874733169292
 20
502.4118481076
 10
115.874748003992
 20
502.1985580006
 10
115.874773703792
 20
501.8355395331
 10
115.874800414092
 20
501.4667012042
 10
115.874823161992
 20
501.1419607487001
  0
ARC
  5
242
330
1F
100
AcDbEntity
  8
0
  6
CONTINUOUS
 62
     7
100
AcDbCircle
 10
116.151655418592
 20
502.3910197672
 30
0.0
 40
0.2777044327006645
100
AcDbArc
 50
111.7566373833982
 51
175.6986725994915
  0
ELLIPSE
  5
243
330
1F
100
AcDbEntity
  8
0
  6
CONTINUOUS
 62
     7
100
AcDbEllipse
 10
114.720977023592
 20
469.6000000058
 30
0.0
 11
46.14839142598828
 21
36.52058939835627
 31
0.0
210
0.0
220
0.0
230
1.0
 40
0.4581832778
 41
1.181588592561688
 42
1.195895085859005
  0
LWPOLYLINE
  5
244
330
1F
100
AcDbEntity
  8
0
  6
CONTINUOUS
 62
     7
100
AcDbPolyline
 90
        3
 70
   128
 43
0.0
 10
116.804523413292
 20
503.0661548344
 10
116.768429146592
 20
503.0315899455001
 10
116.750586261092
 20
503.0209688811
  0
ELLIPSE
  5
245
330
1F
100
AcDbEntity
  8
0
  6
CONTINUOUS
 62
     7
100
AcDbEllipse
 10
116.038411107792
 20
469.6000000058
 30
0.0
 11
12.59298592856232
 21
42.0322960184937
 31
0.0
210
0.0
220
0.0
230
1.0
 40
0.2984573565
 41
0.7341757287928955
 42
0.7441996162284527
  0
ARC
  5
246
330
1F
100
AcDbEntity
  8
0
  6
CONTINUOUS
 62
     7
100
AcDbCircle
 10
117.358961835692
 20
503.00626957
 30
0.0
 40
0.491439118016619
100
AcDbArc
 50
94.7103642294014
 51
140.0009066235966
  0
ELLIPSE
  5
247
330
1F
100
AcDbEntity
  8
0
  6
CONTINUOUS
 62
     7
100
AcDbEllipse
 10
107.487349617792
 20
469.6000000058
 30
0.0
 11
163.8002512813079
 21
28.17682294090207
 31
0.0
210
0.0
220
0.0
230
1.0
 40
0.1917889024
 41
1.47720987957649
 42
1.477793691449376
  0
ARC
  5
248
330
1F
100
AcDbEntity
  8
0
  6
CONTINUOUS
 62
     7
100
AcDbCircle
 10
117.400851160692
 20
503.6943178466
 30
0.0
 40
0.1840774054891221
100
AcDbArc
 50
274.131143511001
 51
329.9681201426865
  0
ELLIPSE
  5
249
330
1F
100
AcDbEntity
  8
0
  6
CONTINUOUS
 62
     7
100
AcDbEllipse
 10
117.008196991592
 20
469.6000000058
 30
0.0
 11
5.660083456129059
 21
42.19107185123527
 31
0.0
210
0.0
220
0.0
230
1.0
 40
0.1533578904
 41
0.4637787647328891
 42
0.6544445977018777
  0
ARC
  5
24A
330
1F
100
AcDbEntity
  8
0
  6
CONTINUOUS
 62
     7
100
AcDbCircle
 10
119.620977797292
 20
507.2883965019
 30
0.0
 40
0.6217501232775362
100
AcDbArc
 50
77.15229183829955
 51
135.6971610236055
  0
LWPOLYLINE
  5
24B
330
1F
100
AcDbEntity
  8
0
  6
CONTINUOUS
 62
     7
100
AcDbPolyline
 90
        6
 70
   128
 43
0.0
 10
120.129720689192
 20
507.6445065226001
 10
120.134703010092
 20
507.7193177183
 10
120.081388848192
 20
507.7900231236
 10
119.977528725392
 20
507.8468363805
 10
119.838826049692
 20
507.8839412222001
 10
119.759230399092
 20
507.8945808252
  0
ARC
  5
24C
330
1F
100
AcDbEntity
  8
0
  6
CONTINUOUS
 62
     7
100
AcDbCircle
 10
161.860898870492
 20
488.9523292638
 30
0.0
 40
45.72623670361823
100
AcDbArc
 50
155.8714975451
 51
161.5132661369
  0
ARC
  5
24D
330
1F
100
AcDbEntity
  8
0
  6
CONTINUOUS
 62
     7
100
AcDbCircle
 10
118.589381457092
 20
503.4302903996
 30
0.0
 40
0.0974350811332999
100
AcDbArc
 50
167.4655121259125
 51
249.4761615536094
  0
ELLIPSE
  5
24E
330
1F
100
AcDbEntity
  8
0
  6
CONTINUOUS
 62
     7
100
AcDbEllipse
 10
121.001957163992
 20
469.6000000058
 30
0.0
 11
42.05161061674838
 21
-37.41242008554821
 31
0.0
210
0.0
220
0.0
230
1.0
 40
0.4642648423
 41
2.014531456990283
 42
2.01630210125034
  0
ARC
  5
24F
330
1F
100
AcDbEntity
  8
0
  6
CONTINUOUS
 62
     7
100
AcDbCircle
 10
118.540146980892
 20
503.0591740498
 30
0.0
 40
0.2536075615004161
100
AcDbArc
 50
352.8875356428886
 51
67.87367554759716
  0
ARC
  5
250
330
1F
100
AcDbEntity
  8
0
  6
CONTINUOUS
 62
     7
100
AcDbCircle
 10
207.314689329792
 20
482.2476403210001
 30
0.0
 40
90.92917745624493
100
AcDbArc
 50
166.7894010364
 51
166.9060819534
  0
LWPOLYLINE
  5
251
330
1F
100
AcDbEntity
  8
0
  6
CONTINUOUS
 62
     7
100
AcDbPolyline
 90
        3
 70
   128
 43
0.0
 10
118.778777439192
 20
502.763009063
 10
118.752301786692
 20
502.8031671642
 10
118.749668591292
 20
502.8474562049
  0
ELLIPSE
  5
252
330
1F
100
AcDbEntity
  8
0
  6
CONTINUOUS
 62
     7
100
AcDbEllipse
 10
119.607397315992
 20
469.6000000058
 30
0.0
 11
-20.56884160466581
 21
41.39333015862138
 31
0.0
210
0.0
220
0.0
230
1.0
 40
0.3992306629
 41
5.408754215400915
 42
5.4206239273037
  0
ARC
  5
253
330
1F
100
AcDbEntity
  8
0
  6
CONTINUOUS
 62
     7
100
AcDbCircle
 10
118.925576733992
 20
502.2735209129
 30
0.0
 40
0.2431418831362427
100
AcDbArc
 50
349.24013186938
 51
46.85244707760016
  0
ARC
  5
254
330
1F
100
AcDbEntity
  8
0
  6
CONTINUOUS
 62
     7
100
AcDbCircle
 10
216.614245852992
 20
478.0320370334
 30
0.0
 40
100.4087383873734
100
AcDbArc
 50
166.0558512415
 51
166.2316062345
  0
LINE
  5
255
330
1F
100
AcDbEntity
  8
0
  6
CONTINUOUS
 62
     7
100
AcDbLine
 10
119.003605187192
 20
501.7639685902
 30
0.0
 11
119.090680767092
 21
501.9290870079
 31
0.0
  0
ARC
  5
256
330
1F
100
AcDbEntity
  8
0
  6
CONTINUOUS
 62
     7
100
AcDbCircle
 10
166.896682312492
 20
460.1738853922
 30
0.0
 40
63.43092193043874
100
AcDbArc
 50
139.0291320315
 51
139.6107672127
  0
LWPOLYLINE
  5
257
330
1F
100
AcDbEntity
  8
0
  6
CONTINUOUS
 62
     7
100
AcDbPolyline
 90
        3
 70
   128
 43
0.0
 10
118.552954280292
 20
501.1585341832
 10
118.556437130692
 20
501.2267301695
 10
118.583880547292
 20
501.2756498621001
  0
ELLIPSE
  5
258
330
1F
100
AcDbEntity
  8
0
  6
CONTINUOUS
 62
     7
100
AcDbEllipse
 10
118.393422198192
 20
469.6000000058
 30
0.0
 11
-3.71914664216871
 21
42.19825732119187
 31
0.0
210
0.0
220
0.0
230
1.0
 40
0.1031174375
 41
5.518032529540813
 42
5.548092249680649
  0
ARC
  5
259
330
1F
100
AcDbEntity
  8
0
  6
CONTINUOUS
 62
     7
100
AcDbCircle
 10
118.549853837992
 20
500.2691128694
 30
0.0
 40
0.1781132142811545
100
AcDbArc
 50
268.0862382352045
 51
10.72194946818377
  0
LINE
  5
25A
330
1F
100
AcDbEntity
  8
0
  6
CONTINUOUS
 62
     7
100
AcDbLine
 10
115.020304804092
 20
500.0910990025001
 30
0.0
 11
118.543905705592
 21
500.0910990025001
 31
0.0
  0
LINE
  5
25B
330
1F
100
AcDbEntity
  8
0
  6
CONTINUOUS
 62
     7
100
AcDbLine
 10
118.568552376592
 20
499.8113332397
 30
0.0
 11
118.543905705592
 21
500.0910990025001
 31
0.0
  0
LINE
  5
25C
330
1F
100
AcDbEntity
  8
0
  6
CONTINUOUS
 62
     7
100
AcDbLine
 10
61.71823958389203
 20
500.4150142815
 30
0.0
 11
61.74553121789202
 21
500.6736096478
 31
0.0
  0
LINE
  5
25D
330
1F
100
AcDbEntity
  8
0
  6
CONTINUOUS
 62
     7
100
AcDbLine
 10
67.91023724489202
 20
500.6194580321001
 30
0.0
 11
67.90787706259201
 21
500.8909026920001
 31
0.0
  0
LINE
  5
25E
330
1F
100
AcDbEntity
  8
0
  6
CONTINUOUS
 62
     7
100
AcDbLine
 10
61.37463754709202
 20
500.8909026882001
 30
0.0
 11
61.37227736459201
 21
500.6194580284
 31
0.0
  0
LINE
  5
25F
330
1F
100
AcDbEntity
  8
0
  6
CONTINUOUS
 62
     7
100
AcDbLine
 10
61.28125730859202
 20
500.7717224841
 30
0.0
 11
61.28360444029201
 21
501.0418409765
 31
0.0
  0
LINE
  5
260
330
1F
100
AcDbEntity
  8
0
  6
CONTINUOUS
 62
     7
100
AcDbLine
 10
67.998910169492
 20
501.0418409592
 30
0.0
 11
68.00125730099202
 21
500.7717224668
 31
0.0
  0
LINE
  5
261
330
1F
100
AcDbEntity
  8
0
  6
CONTINUOUS
 62
     7
100
AcDbLine
 10
67.99900514879201
 20
502.3565096263001
 30
0.0
 11
68.00125730159203
 21
502.0965878084
 31
0.0
  0
LINE
  5
262
330
1F
100
AcDbEntity
  8
0
  6
CONTINUOUS
 62
     7
100
AcDbLine
 10
61.28333083299202
 20
505.157181494
 30
0.0
 11
61.28125731309203
 21
505.0026783384
 31
0.0
  0
LWPOLYLINE
  5
263
330
1F
100
AcDbEntity
  8
0
  6
CONTINUOUS
 62
     7
100
AcDbPolyline
 90
        3
 70
   128
 43
0.0
 10
115.874733169292
 20
502.4118481076
 10
115.873579463592
 20
502.3326620481
 10
115.872484842192
 20
502.2574122473001
  0
LINE
  5
264
330
1F
100
AcDbEntity
  8
0
  6
CONTINUOUS
 62
     7
100
AcDbLine
 10
118.583880547292
 20
501.2756498621001
 30
0.0
 11
118.603153902192
 21
501.0280806833
 31
0.0
  0
LINE
  5
265
330
1F
100
AcDbEntity
  8
0
  6
CONTINUOUS
 62
     7
100
AcDbLine
 10
119.005752312092
 20
501.5002795318001
 30
0.0
 11
119.003605187192
 21
501.7639685902
 31
0.0
  0
LINE
  5
266
330
1F
100
AcDbEntity
  8
0
  6
CONTINUOUS
 62
     7
100
AcDbLine
 10
119.090680767092
 20
501.9290870079
 30
0.0
 11
119.092814909392
 21
501.6667630034
 31
0.0
  0
LWPOLYLINE
  5
267
330
1F
100
AcDbEntity
  8
0
  6
CONTINUOUS
 62
     7
100
AcDbPolyline
 90
        3
 70
   128
 43
0.0
 10
119.187218807392
 20
502.0519852412
 10
119.172705128092
 20
502.1642708342
 10
119.164443759292
 20
502.2281279665
  0
LINE
  5
268
330
1F
100
AcDbEntity
  8
0
  6
CONTINUOUS
 62
     7
100
AcDbLine
 10
114.509242490292
 20
502.3110341168
 30
0.0
 11
114.510982327392
 21
502.050739678
 31
0.0
  0
LINE
  5
269
330
1F
100
AcDbEntity
  8
0
  6
CONTINUOUS
 62
     7
100
AcDbLine
 10
114.318702181492
 20
501.927715887
 30
0.0
 11
114.316955088892
 21
502.1890087204
 31
0.0
  0
ARC
  5
26A
330
1F
100
AcDbEntity
  8
0
  6
CONTINUOUS
 62
     7
100
AcDbCircle
 10
114.330341864692
 20
502.3804296328
 30
0.0
 40
0.191888434986595
100
AcDbArc
 50
265.9996063222961
 51
338.7987371423999
  0
LINE
  5
26B
330
1F
100
AcDbEntity
  8
0
  6
CONTINUOUS
 62
     7
100
AcDbLine
 10
110.544265607692
 20
502.1890087204
 30
0.0
 11
110.542518517592
 21
501.927715887
 31
0.0
  0
LINE
  5
26C
330
1F
100
AcDbEntity
  8
0
  6
CONTINUOUS
 62
     7
100
AcDbLine
 10
110.350238441492
 20
502.0507394555
 30
0.0
 11
110.351978276792
 21
502.3110338938001
 31
0.0
  0
ARC
  5
26D
330
1F
100
AcDbEntity
  8
0
  6
CONTINUOUS
 62
     7
100
AcDbCircle
 10
110.534960304592
 20
502.3868612431
 30
0.0
 40
0.198071223041514
100
AcDbArc
 50
202.5090094257127
 51
272.6927228551982
  0
LINE
  5
26E
330
1F
100
AcDbEntity
  8
0
  6
CONTINUOUS
 62
     7
100
AcDbLine
 10
111.472882246392
 20
503.0402181527
 30
0.0
 11
110.936122483592
 21
503.0402181527
 31
0.0
  0
LWPOLYLINE
  5
26F
330
1F
100
AcDbEntity
  8
0
  6
CONTINUOUS
 62
     7
100
AcDbPolyline
 90
        3
 70
   128
 43
0.0
 10
112.397266201692
 20
503.2338529165
 10
111.954609230192
 20
503.0886710156
 10
111.472882246392
 20
503.0402181527
  0
ELLIPSE
  5
270
330
1F
100
AcDbEntity
  8
0
  6
CONTINUOUS
 62
     7
100
AcDbEllipse
 10
109.719959094692
 20
469.6000000058
 30
0.0
 11
51.57182352136955
 21
35.39380616808518
 31
0.0
210
0.0
220
0.0
230
1.0
 40
0.4456082231
 41
1.220413160633302
 42
1.224342427020495
  0
LINE
  5
271
330
1F
100
AcDbEntity
  8
0
  6
CONTINUOUS
 62
     7
100
AcDbLine
 10
113.628236188892
 20
504.0343364263
 30
0.0
 11
112.608887466192
 21
503.3337395254
 31
0.0
  0
ELLIPSE
  5
272
330
1F
100
AcDbEntity
  8
0
  6
CONTINUOUS
 62
     7
100
AcDbEllipse
 10
111.685228013292
 20
469.6000000058
 30
0.0
 11
18.00120340520946
 21
41.66119101290001
 31
0.0
210
0.0
220
0.0
230
1.0
 40
0.3734189808
 41
0.7121246539617524
 42
0.7763449914838462
  0
ARC
  5
273
330
1F
100
AcDbEntity
  8
0
  6
CONTINUOUS
 62
     7
100
AcDbCircle
 10
115.301554773692
 20
505.3345329091001
 30
0.0
 40
0.2489619401360509
100
AcDbArc
 50
85.69606826540195
 51
128.6625945419963
  0
LINE
  5
274
330
1F
100
AcDbEntity
  8
0
  6
CONTINUOUS
 62
     7
100
AcDbLine
 10
115.412586360792
 20
505.5827927731
 30
0.0
 11
115.320238659092
 21
505.5827927731
 31
0.0
  0
LWPOLYLINE
  5
275
330
1F
100
AcDbEntity
  8
0
  6
CONTINUOUS
 62
     7
100
AcDbPolyline
 90
        7
 70
   128
 43
0.0
 10
115.606499976192
 20
505.4581793128
 10
115.608604370192
 20
505.4936640174
 10
115.588154917092
 20
505.5274323154
 10
115.547917147092
 20
505.5551505182
 10
115.493016638992
 20
505.5740189474
 10
115.429133068292
 20
505.5824392008
 10
115.412586360792
 20
505.5827927731
  0
ARC
  5
276
330
1F
100
AcDbEntity
  8
0
  6
CONTINUOUS
 62
     7
100
AcDbCircle
 10
174.613612162292
 20
483.1203970926
 30
0.0
 40
63.09370652494725
100
AcDbArc
 50
159.2652964709999
 51
162.2923126935999
  0
LINE
  5
277
330
1F
100
AcDbEntity
  8
0
  6
CONTINUOUS
 62
     7
100
AcDbLine
 10
110.544265607692
 20
502.1890087204
 30
0.0
 11
114.316955088892
 21
502.1890087204
 31
0.0
  0
ARC
  5
278
330
1F
100
AcDbEntity
  8
0
  6
CONTINUOUS
 62
     7
100
AcDbCircle
 10
38.30204165489201
 20
479.148433165
 30
0.0
 40
75.68156604969356
100
AcDbArc
 50
17.82155029149996
 51
18.43246677679999
  0
LWPOLYLINE
  5
279
330
1F
100
AcDbEntity
  8
0
  6
CONTINUOUS
 62
     7
100
AcDbPolyline
 90
        8
 70
   128
 43
0.0
 10
110.245708746792
 20
503.1426706013
 10
110.212288994692
 20
503.1492059532001
 10
110.177160063492
 20
503.1486029991
 10
110.145220555892
 20
503.1409573007001
 10
110.120299732492
 20
503.1276103249
 10
110.104487989292
 20
503.1103046673001
 10
110.098880355992
 20
503.090766977
 10
110.100916027092
 20
503.0779354296
  0
LWPOLYLINE
  5
27A
330
1F
100
AcDbEntity
  8
0
  6
CONTINUOUS
 62
     7
100
AcDbPolyline
 90
        3
 70
   128
 43
0.0
 10
110.936122483592
 20
503.0402181527
 10
110.470534583092
 20
503.085360555
 10
110.245708746792
 20
503.1426706013
  0
LINE
  5
27B
330
1F
100
AcDbEntity
  8
0
  6
CONTINUOUS
 62
     7
100
AcDbLine
 10
70.59417582209201
 20
503.7487133132
 30
0.0
 11
70.59417582209201
 21
503.4996584273
 31
0.0
  0
LINE
  5
27C
330
1F
100
AcDbEntity
  8
0
  6
CONTINUOUS
 62
     7
100
AcDbLine
 10
68.79417582209203
 20
502.0965878084
 30
0.0
 11
68.79417582209203
 21
502.3565096263001
 31
0.0
  0
LWPOLYLINE
  5
27D
330
1F
100
AcDbEntity
  8
0
  6
CONTINUOUS
 62
     7
100
AcDbPolyline
 90
        3
 70
   128
 43
0.0
 10
110.100916027092
 20
503.0779354296
 10
110.070088328892
 20
502.97176412
 10
110.060781587792
 20
502.9396023886001
  0
LINE
  5
27E
330
1F
100
AcDbEntity
  8
0
  6
CONTINUOUS
 62
     7
100
AcDbLine
 10
115.639300880492
 20
505.3034405415
 30
0.0
 11
115.606499976192
 21
505.4581793128
 31
0.0
  0
LWPOLYLINE
  5
27F
330
1F
100
AcDbEntity
  8
0
  6
CONTINUOUS
 62
     7
100
AcDbPolyline
 90
        3
 70
   128
 43
0.0
 10
118.814324248692
 20
502.8618183593001
 10
118.801797149592
 20
502.9541742491
 10
118.791803038692
 20
503.0277730337
  0
LWPOLYLINE
  5
280
330
1F
100
AcDbEntity
  8
0
  6
CONTINUOUS
 62
     7
100
AcDbPolyline
 90
        6
 70
   128
 43
0.0
 10
69.57652336999203
 20
503.5363078285001
 10
69.49994652619202
 20
503.7994874926001
 10
69.32136276899203
 20
503.9868765052
 10
69.09602289629203
 20
504.1040863116
 10
68.81111398139203
 20
504.1680331014001
 10
68.68210986039202
 20
504.1744888685
  0
LINE
  5
281
330
1F
100
AcDbEntity
  8
0
  6
CONTINUOUS
 62
     7
100
AcDbLine
 10
69.57652336999203
 20
503.5363078285001
 30
0.0
 11
69.57652336989202
 21
503.4234116234001
 31
0.0
  0
LINE
  5
282
330
1F
100
AcDbEntity
  8
0
  6
CONTINUOUS
 62
     7
100
AcDbLine
 10
68.00125729279202
 20
503.1783711491
 30
0.0
 11
68.00125729409203
 21
503.8243057097001
 31
0.0
  0
LWPOLYLINE
  5
283
330
1F
100
AcDbEntity
  8
0
  6
CONTINUOUS
 62
     7
100
AcDbPolyline
 90
        7
 70
   128
 43
0.0
 10
68.49819153029202
 20
504.1744888685
 10
68.35533068679203
 20
504.1599910234
 10
68.22915123199203
 20
504.1196373843001
 10
68.12348917359202
 20
504.0558202242
 10
68.04143762779202
 20
503.9638210918
 10
68.00191037279203
 20
503.8425725384
 10
68.00125729409203
 20
503.8243057097001
  0
LINE
  5
284
330
1F
100
AcDbEntity
  8
0
  6
CONTINUOUS
 62
     7
100
AcDbLine
 10
68.49819153029202
 20
504.1744888685
 30
0.0
 11
68.68210986039202
 21
504.1744888685
 31
0.0
  0
LINE
  5
285
330
1F
100
AcDbEntity
  8
0
  6
CONTINUOUS
 62
     7
100
AcDbLine
 10
68.00125729409203
 20
503.8243057097001
 30
0.0
 11
67.99911799119201
 21
504.0709716922
 31
0.0
  0
LINE
  5
286
330
1F
100
AcDbEntity
  8
0
  6
CONTINUOUS
 62
     7
100
AcDbLine
 10
69.57868069529201
 20
503.785090242
 30
0.0
 11
69.57652336999203
 21
503.5363078285001
 31
0.0
  0
LINE
  5
287
330
1F
100
AcDbEntity
  8
0
  6
CONTINUOUS
 62
     7
100
AcDbLine
 10
120.159577259292
 20
507.4837189311
 30
0.0
 11
120.129720689192
 21
507.6445065226001
 31
0.0
  0
LINE
  5
288
330
1F
100
AcDbEntity
  8
0
  6
CONTINUOUS
 62
     7
100
AcDbLine
 10
112.168775541792
 20
503.749815152
 30
0.0
 11
112.168129168792
 21
503.5001374891
 31
0.0
  0
LWPOLYLINE
  5
289
330
1F
100
AcDbEntity
  8
0
  6
CONTINUOUS
 62
     7
100
AcDbPolyline
 90
        3
 70
   128
 43
0.0
 10
111.183975311392
 20
503.2822689870001
 10
111.183646487592
 20
503.4062577202
 10
111.183310072492
 20
503.5329488153
  0
ARC
  5
28A
330
1F
100
AcDbEntity
  8
0
  6
CONTINUOUS
 62
     7
100
AcDbCircle
 10
111.202478184992
 20
505.7933138583001
 30
0.0
 40
2.260446315243351
100
AcDbArc
 50
269.5141379365996
 51
295.3077901064998
  0
LWPOLYLINE
  5
28B
330
1F
100
AcDbEntity
  8
0
  6
CONTINUOUS
 62
     7
100
AcDbPolyline
 90
        3
 70
   128
 43
0.0
 10
110.380182204092
 20
503.647479361
 10
110.857242074692
 20
503.5462069716
 10
111.109915752592
 20
503.5329488153
  0
LWPOLYLINE
  5
28C
330
1F
100
AcDbEntity
  8
0
  6
CONTINUOUS
 62
     7
100
AcDbPolyline
 90
        3
 70
   128
 43
0.0
 10
110.041033762392
 20
503.7581192515
 10
110.151217249092
 20
503.7222442368001
 10
110.380182204092
 20
503.647479361
  0
LWPOLYLINE
  5
28D
330
1F
100
AcDbEntity
  8
0
  6
CONTINUOUS
 62
     7
100
AcDbPolyline
 90
        5
 70
   128
 43
0.0
 10
109.383308062992
 20
505.0005785635
 10
109.254466955492
 20
504.5560130667
 10
109.412183115692
 20
504.1653136570001
 10
109.699329574092
 20
503.9142260058001
 10
110.041033762392
 20
503.7581192515
  0
ELLIPSE
  5
28E
330
1F
100
AcDbEntity
  8
0
  6
CONTINUOUS
 62
     7
100
AcDbEllipse
 10
107.475341289392
 20
469.6000000058
 30
0.0
 11
10.82805136530513
 21
42.10085130264389
 31
0.0
210
0.0
220
0.0
230
1.0
 40
0.2669987199000001
 41
0.6436334861811331
 42
0.6441434704735673
  0
LWPOLYLINE
  5
28F
330
1F
100
AcDbEntity
  8
0
  6
CONTINUOUS
 62
     7
100
AcDbPolyline
 90
        3
 70
   128
 43
0.0
 10
109.399868534492
 20
505.0725484286
 10
109.401896712692
 20
505.0355104979
 10
109.391207857992
 20
505.0122884999
  0
ARC
  5
290
330
1F
100
AcDbEntity
  8
0
  6
CONTINUOUS
 62
     7
100
AcDbCircle
 10
62.10889906319201
 20
487.4927686474
 30
0.0
 40
50.45279428026654
100
AcDbArc
 50
20.39193806120005
 51
20.8598681883
  0
LWPOLYLINE
  5
291
330
1F
100
AcDbEntity
  8
0
  6
CONTINUOUS
 62
     7
100
AcDbPolyline
 90
        7
 70
   128
 43
0.0
 10
109.448634028292
 20
505.5827927731
 10
109.382574571592
 20
505.5769708577
 10
109.323945732492
 20
505.5599739642
 10
109.280191018692
 20
505.5340113573
 10
109.255496610992
 20
505.5020848359001
 10
109.252006144892
 20
505.4673222992
 10
109.254720338992
 20
505.4581794951
  0
LINE
  5
292
330
1F
100
AcDbEntity
  8
0
  6
CONTINUOUS
 62
     7
100
AcDbLine
 10
114.116276109092
 20
505.5827927731
 30
0.0
 11
109.448634028292
 21
505.5827927731
 31
0.0
  0
LWPOLYLINE
  5
293
330
1F
100
AcDbEntity
  8
0
  6
CONTINUOUS
 62
     7
100
AcDbPolyline
 90
        8
 70
   128
 43
0.0
 10
114.206225107792
 20
505.5077000859001
 10
114.217506652592
 20
505.5240501933
 10
114.217628889392
 20
505.5414611915
 10
114.206839744692
 20
505.5569359786
 10
114.187430569192
 20
505.5692824591
 10
114.160767905692
 20
505.5780675622
 10
114.127925505492
 20
505.582488475
 10
114.116276109092
 20
505.5827927731
  0
ARC
  5
294
330
1F
100
AcDbEntity
  8
0
  6
CONTINUOUS
 62
     7
100
AcDbCircle
 10
146.589830407792
 20
471.0681400417
 30
0.0
 40
47.27347235257376
100
AcDbArc
 50
133.2377311731
 51
135.2973791411
  0
LINE
  5
295
330
1F
100
AcDbEntity
  8
0
  6
CONTINUOUS
 62
     7
100
AcDbLine
 10
112.168775541792
 20
503.749815152
 30
0.0
 11
112.989392195992
 21
504.3215870848001
 31
0.0
  0
LINE
  5
296
330
1F
100
AcDbEntity
  8
0
  6
CONTINUOUS
 62
     7
100
AcDbLine
 10
111.109915752592
 20
503.5329488153
 30
0.0
 11
111.183310072492
 21
503.5329488153
 31
0.0
  0
LINE
  5
297
330
1F
100
AcDbEntity
  8
0
  6
CONTINUOUS
 62
     7
100
AcDbLine
 10
111.109915752592
 20
503.5329488153
 30
0.0
 11
111.109452251192
 21
503.2822689870001
 31
0.0
  0
LINE
  5
298
330
1F
100
AcDbEntity
  8
0
  6
CONTINUOUS
 62
     7
100
AcDbLine
 10
110.379723086692
 20
503.3976637525
 30
0.0
 11
110.380182204092
 21
503.647479361
 31
0.0
  0
LWPOLYLINE
  5
299
330
1F
100
AcDbEntity
  8
0
  6
CONTINUOUS
 62
     7
100
AcDbPolyline
 90
        3
 70
   128
 43
0.0
 10
110.041033762392
 20
503.7581192515
 10
110.033903603392
 20
503.7249150712
 10
109.991052275392
 20
503.5253563914
  0
LINE
  5
29A
330
1F
100
AcDbEntity
  8
0
  6
CONTINUOUS
 62
     7
100
AcDbLine
 10
68.68210986039202
 20
504.1744888685
 30
0.0
 11
68.68422692469201
 21
504.4186284176
 31
0.0
  0
LINE
  5
29B
330
1F
100
AcDbEntity
  8
0
  6
CONTINUOUS
 62
     7
100
AcDbLine
 10
112.989392195992
 20
504.3215870848001
 30
0.0
 11
112.990890765392
 21
504.0771320737
 31
0.0
  0
LINE
  5
29C
330
1F
100
AcDbEntity
  8
0
  6
CONTINUOUS
 62
     7
100
AcDbLine
 10
68.49607413889203
 20
504.4186284176
 30
0.0
 11
68.49819153029202
 21
504.1744888685
 31
0.0
  0
LWPOLYLINE
  5
29D
330
1F
100
AcDbEntity
  8
0
  6
CONTINUOUS
 62
     7
100
AcDbPolyline
 90
        3
 70
   128
 43
0.0
 10
114.293995404992
 20
505.3529027764
 10
114.254193950692
 20
505.4231535262001
 10
114.206225107792
 20
505.5077000859001
  0
LINE
  5
29E
330
1F
100
AcDbEntity
  8
0
  6
CONTINUOUS
 62
     7
100
AcDbLine
 10
68.00125730149202
 20
505.0026783493
 30
0.0
 11
67.99918380439203
 21
505.1571815122001
 31
0.0
  0
LINE
  5
29F
330
1F
100
AcDbEntity
  8
0
  6
CONTINUOUS
 62
     7
100
AcDbLine
 10
109.254720338992
 20
505.4581794951
 30
0.0
 11
109.221919721892
 21
505.3034406599
 31
0.0
  0
LINE
  5
2A0
330
1F
100
AcDbEntity
  8
0
  6
CONTINUOUS
 62
     7
100
AcDbLine
 10
24.64735085929202
 20
512.5989714484999
 30
0.0
 11
24.64717434389202
 21
512.5989704186
 31
0.0
  0
LINE
  5
2A1
330
1F
100
AcDbEntity
  8
0
  6
CONTINUOUS
 62
     7
100
AcDbLine
 10
143.657543659192
 20
511.6000000058
 30
0.0
 11
143.657789270092
 21
511.6000000058
 31
0.0
  0
LINE
  5
2A2
330
1F
100
AcDbEntity
  8
0
  6
CONTINUOUS
 62
     7
100
AcDbLine
 10
25.71382839249202
 20
511.6000000058
 30
0.0
 11
25.71407400339201
 21
511.6000000058
 31
0.0
  0
LINE
  5
2A3
330
1F
100
AcDbEntity
  8
0
  6
CONTINUOUS
 62
     7
100
AcDbLine
 10
14.48580883129202
 20
158.3705552793
 30
0.0
 11
14.48580883129202
 21
25.26497945500002
 31
0.0
  0
LINE
  5
2A4
330
1F
100
AcDbEntity
  8
0
  6
CONTINUOUS
 62
     7
100
AcDbLine
 10
4.877814545492015
 20
11.00000000000001
 30
0.0
 11
3.885808831292024
 21
11.00000000000001
 31
0.0
  0
LINE
  5
2A5
330
1F
100
AcDbEntity
  8
0
  6
CONTINUOUS
 62
     7
100
AcDbLine
 10
3.885808831292024
 20
167.376439301
 30
0.0
 11
3.885808831292024
 21
11.00000000000001
 31
0.0
  0
ARC
  5
2A6
330
1F
100
AcDbEntity
  8
0
  6
CONTINUOUS
 62
     7
100
AcDbCircle
 10
5.485808831292019
 20
11.00000000000001
 30
0.0
 40
0.8000000000000059
100
AcDbArc
 50
180.0
 51
219.5466349202005
  0
ARC
  5
2A7
330
1F
100
AcDbEntity
  8
0
  6
CONTINUOUS
 62
     7
100
AcDbCircle
 10
5.485808831292019
 20
11.00000000000001
 30
0.0
 40
1.599999999999994
100
AcDbArc
 50
180.0
 51
246.6701234381001
  0
LINE
  5
2A8
330
1F
100
AcDbEntity
  8
0
  6
CONTINUOUS
 62
     7
100
AcDbLine
 10
154.885808831292
 20
25.26464993940002
 30
0.0
 11
154.885808831292
 21
158.3702849835
 31
0.0
  0
LINE
  5
2A9
330
1F
100
AcDbEntity
  8
0
  6
CONTINUOUS
 62
     7
100
AcDbLine
 10
164.493803117092
 20
11.00000000000001
 30
0.0
 11
165.485808831292
 21
11.00000000000001
 31
0.0
  0
LINE
  5
2AA
330
1F
100
AcDbEntity
  8
0
  6
CONTINUOUS
 62
     7
100
AcDbLine
 10
165.485808831292
 20
11.00000000000001
 30
0.0
 11
165.485808831292
 21
167.3763057824
 31
0.0
  0
ARC
  5
2AB
330
1F
100
AcDbEntity
  8
0
  6
CONTINUOUS
 62
     7
100
AcDbCircle
 10
163.885808831292
 20
11.00000000000001
 30
0.0
 40
0.8000000000000114
100
AcDbArc
 50
320.4533650797009
 51
0.0
  0
ARC
  5
2AC
330
1F
100
AcDbEntity
  8
0
  6
CONTINUOUS
 62
     7
100
AcDbCircle
 10
163.885808831292
 20
11.00000000000001
 30
0.0
 40
1.599999999999998
100
AcDbArc
 50
293.3298765619009
 51
0.0
  0
LINE
  5
2AD
330
1F
100
AcDbEntity
  8
0
  6
CONTINUOUS
 62
     7
100
AcDbLine
 10
32.78082126919202
 20
0.0000000000000284
 30
0.0
 11
29.14991044639203
 21
0.0000000000000284
 31
0.0
  0
LINE
  5
2AE
330
1F
100
AcDbEntity
  8
0
  6
CONTINUOUS
 62
     7
100
AcDbLine
 10
140.221707216192
 20
0.0000000000000284
 30
0.0
 11
136.590796393392
 21
0.0000000000000284
 31
0.0
  0
LINE
  5
2AF
330
1F
100
AcDbEntity
  8
0
  6
CONTINUOUS
 62
     8
100
AcDbLine
 10
154.685808831292
 20
158.2801496184
 30
0.0
 11
154.685808831292
 21
25.33024834870001
 31
0.0
  0
LINE
  5
2B0
330
1F
100
AcDbEntity
  8
0
  6
CONTINUOUS
 62
     8
100
AcDbLine
 10
14.68580883129202
 20
158.2801917254
 30
0.0
 11
14.68580883129202
 21
25.33112099470002
 31
0.0
  0
LWPOLYLINE
  5
2B3
330
1F
100
AcDbEntity
  8
0
  6
CONTINUOUS
 62
     8
100
AcDbPolyline
 90
        3
 70
   128
 43
0.0
 10
152.945528016292
 20
25.85911312220001
 10
152.978939811792
 20
25.84897152240002
 10
153.025391017092
 20
25.83581895210001
  0
LINE
  5
2B4
330
1F
100
AcDbEntity
  8
0
  6
CONTINUOUS
 62
     8
100
AcDbLine
 10
16.38722575859202
 20
25.84781239010002
 30
0.0
 11
16.42608984329202
 21
25.85911292330002
 31
0.0
  0
ARC
  5
2B5
330
1F
100
AcDbEntity
  8
0
  6
CONTINUOUS
 62
     8
100
AcDbCircle
 10
83.49109871459203
 20
486.9562730482
 30
0.0
 40
3.763121119396164
100
AcDbArc
 50
267.3098349057
 51
348.9706712008998
  0
LINE
  5
2B6
330
1F
100
AcDbEntity
  8
0
  6
CONTINUOUS
 62
     8
100
AcDbLine
 10
43.01678051339201
 20
487.1142788274
 30
0.0
 11
42.86752292989203
 21
484.1784423486
 31
0.0
  0
LINE
  5
2B7
330
1F
100
AcDbEntity
  8
0
  6
CONTINUOUS
 62
     8
100
AcDbLine
 10
46.92002014009202
 20
483.5197094909
 30
0.0
 11
46.88674674899201
 21
482.5235123491
 31
0.0
  0
LINE
  5
2B8
330
1F
100
AcDbEntity
  8
0
  6
CONTINUOUS
 62
     8
100
AcDbLine
 10
83.31447666599203
 20
483.197299091
 30
0.0
 11
83.29017086899202
 21
482.4695895113
 31
0.0
  0
LINE
  5
2B9
330
1F
100
AcDbEntity
  8
0
  6
CONTINUOUS
 62
     8
100
AcDbLine
 10
103.007642918592
 20
486.5828331133
 30
0.0
 11
102.884491642092
 21
484.1604971653001
 31
0.0
  0
LINE
  5
2BA
330
1F
100
AcDbEntity
  8
0
  6
CONTINUOUS
 62
     8
100
AcDbLine
 10
106.910882545392
 20
482.9882637768001
 30
0.0
 11
106.895359657992
 21
482.5235123491
 31
0.0
  0
LINE
  5
2BB
330
1F
100
AcDbEntity
  8
0
  6
CONTINUOUS
 62
     8
100
AcDbLine
 10
123.308384936092
 20
482.8430019483001
 30
0.0
 11
123.295932907792
 21
482.4701912844
 31
0.0
  0
LWPOLYLINE
  5
2BC
330
1F
100
AcDbEntity
  8
0
  6
CONTINUOUS
 62
     8
100
AcDbPolyline
 90
        9
 70
   128
 43
0.0
 10
87.22726086149203
 20
494.136377468
 10
87.21180464039202
 20
494.2105690259
 10
87.15713565829202
 20
494.3226382523001
 10
87.06719712389202
 20
494.4261927156
 10
86.94540734539203
 20
494.5172966050001
 10
86.79639520599201
 20
494.5924873207
 10
86.62582423349201
 20
494.6489070773
 10
86.44017734579202
 20
494.6844115203
 10
86.24651045339203
 20
494.6976512266
  0
LWPOLYLINE
  5
2BD
330
1F
100
AcDbEntity
  8
0
  6
CONTINUOUS
 62
     8
100
AcDbPolyline
 90
        9
 70
   128
 43
0.0
 10
127.221359463292
 20
493.7801859644001
 10
127.205712910592
 20
493.8562718832001
 10
127.151043928392
 20
493.9683411096
 10
127.061105394092
 20
494.0718955729
 10
126.939315615492
 20
494.1629994623
 10
126.790303476092
 20
494.238190178
 10
126.619732503692
 20
494.2946099346
 10
126.434085615992
 20
494.3301143776
 10
126.240418723592
 20
494.3433540839001
  0
ARC
  5
2BE
330
1F
100
AcDbEntity
  8
0
  6
CONTINUOUS
 62
     8
100
AcDbCircle
 10
43.30939226949201
 20
497.4814662922
 30
0.0
 40
3.62640050974589
100
AcDbArc
 50
358.5871993077003
 51
4.070348111199819
  0
ARC
  5
2BF
330
1F
100
AcDbEntity
  8
0
  6
CONTINUOUS
 62
     8
100
AcDbCircle
 10
79.15581074929202
 20
497.1453840033
 30
0.0
 40
4.174023362398732
100
AcDbArc
 50
358.9602936466999
 51
3.724849379499497
  0
ARC
  5
2C0
330
1F
100
AcDbEntity
  8
0
  6
CONTINUOUS
 62
     8
100
AcDbCircle
 10
102.599416595392
 20
496.9348102413001
 30
0.0
 40
4.326772470569693
100
AcDbArc
 50
359.0173778921002
 51
3.610673444999192
  0
ARC
  5
2C1
330
1F
100
AcDbEntity
  8
0
  6
CONTINUOUS
 62
     8
100
AcDbCircle
 10
119.149719019492
 20
496.7910868606
 30
0.0
 40
4.174023362355527
100
AcDbArc
 50
358.9602936467001
 51
3.724849379500546
  0
LINE
  5
2C2
330
1F
100
AcDbEntity
  8
0
  6
CONTINUOUS
 62
     8
100
AcDbLine
 10
123.185808831292
 20
482.5235123491
 30
0.0
 11
123.185808831292
 21
482.1731932207
 31
0.0
  0
LINE
  5
2C3
330
1F
100
AcDbEntity
  8
0
  6
CONTINUOUS
 62
     8
100
AcDbLine
 10
83.18580883129201
 20
482.5235123491
 30
0.0
 11
83.18580883129201
 21
482.1731932207
 31
0.0
  0
LINE
  5
2C4
330
1F
100
AcDbEntity
  8
0
  6
CONTINUOUS
 62
     8
100
AcDbLine
 10
106.185808831292
 20
482.5235123491
 30
0.0
 11
106.185808831292
 21
482.1731932207
 31
0.0
  0
LINE
  5
2C5
330
1F
100
AcDbEntity
  8
0
  6
CONTINUOUS
 62
     8
100
AcDbLine
 10
46.18580883129201
 20
482.5235123491
 30
0.0
 11
46.18580883129201
 21
482.1731932207
 31
0.0
  0
LINE
  5
2C6
330
1F
100
AcDbEntity
  8
0
  6
CONTINUOUS
 62
     8
100
AcDbLine
 10
46.18580883129201
 20
498.0183902055001
 30
0.0
 11
46.18580883129201
 21
497.6650503088
 31
0.0
  0
ARC
  5
2C7
330
1F
100
AcDbEntity
  8
0
  6
CONTINUOUS
 62
     8
100
AcDbCircle
 10
45.07307992419203
 20
494.0411589883
 30
0.0
 40
2.934425786599479
100
AcDbArc
 50
106.3632991369999
 51
178.3247118585015
  0
LWPOLYLINE
  5
2C8
330
1F
100
AcDbEntity
  8
0
  6
CONTINUOUS
 62
     8
100
AcDbPolyline
 90
        3
 70
   128
 43
0.0
 10
87.23170924069203
 20
494.1269473014
 10
87.11996056509201
 20
494.8761530786001
 10
87.03456255449203
 20
495.0313656334
  0
LINE
  5
2C9
330
1F
100
AcDbEntity
  8
0
  6
CONTINUOUS
 62
     8
100
AcDbLine
 10
83.18580883129201
 20
498.0183902055001
 30
0.0
 11
83.18580883129201
 21
497.4178224938
 31
0.0
  0
LINE
  5
2CA
330
1F
100
AcDbEntity
  8
0
  6
CONTINUOUS
 62
     8
100
AcDbLine
 10
123.185808831292
 20
497.0634713858
 30
0.0
 11
123.185808831292
 21
497.2492614563
 31
0.0
  0
LINE
  5
2CB
330
1F
100
AcDbEntity
  8
0
  6
CONTINUOUS
 62
     8
100
AcDbLine
 10
118.749668591292
 20
502.8474562049
 30
0.0
 11
118.755573859492
 21
502.7982041049
 31
0.0
  0
LINE
  5
2CC
330
1F
100
AcDbEntity
  8
0
  6
CONTINUOUS
 62
     8
100
AcDbLine
 10
118.494268687592
 20
503.4514364657
 30
0.0
 11
118.505518843892
 21
503.3864241206001
 31
0.0
  0
LINE
  5
2CD
330
1F
100
AcDbEntity
  8
0
  6
CONTINUOUS
 62
     8
100
AcDbLine
 10
109.393512707892
 20
505.0172958859
 30
0.0
 11
109.399868534492
 21
505.0725484286
 31
0.0
  0
LINE
  5
2CE
330
1F
100
AcDbEntity
  8
0
  6
CONTINUOUS
 62
     8
100
AcDbLine
 10
12.88580883129202
 20
159.1590827335
 30
0.0
 11
12.88580883129202
 21
24.61695640650002
 31
0.0
  0
LINE
  5
2CF
330
1F
100
AcDbEntity
  8
0
  6
CONTINUOUS
 62
     8
100
AcDbLine
 10
5.485808831292019
 20
165.2253708526
 30
0.0
 11
5.485808831292019
 21
18.48922716290002
 31
0.0
  0
LINE
  5
2D0
330
1F
100
AcDbEntity
  8
0
  6
CONTINUOUS
 62
     8
100
AcDbLine
 10
156.485808831292
 20
24.63844076060002
 30
0.0
 11
156.485808831292
 21
159.1590827335
 31
0.0
  0
LINE
  5
2D1
330
1F
100
AcDbEntity
  8
0
  6
CONTINUOUS
 62
     8
100
AcDbLine
 10
163.885808831292
 20
18.46315882100002
 30
0.0
 11
163.885808831292
 21
165.2253708526
 31
0.0
  0
LINE
  5
2D2
330
1F
100
AcDbEntity
  8
0
  6
CONTINUOUS
 62
     8
100
AcDbLine
 10
29.39119769769201
 20
0.9004962810000166
 30
0.0
 11
33.77585845939203
 21
0.9004962810000166
 31
0.0
  0
LINE
  5
2D3
330
1F
100
AcDbEntity
  8
0
  6
CONTINUOUS
 62
     8
100
AcDbLine
 10
135.595759203192
 20
0.9004962810000166
 30
0.0
 11
139.980419964892
 21
0.9004962810000166
 31
0.0
  0
ENDSEC
  0
SECTION
  2
OBJECTS
  0
DICTIONARY
  5
C
330
0
100
AcDbDictionary
  3
ACAD_GROUP
350
D
  3
ACAD_IMAGE_VARS
350
1008
  3
ACAD_MLINESTYLE
350
17
  3
ACAD_SCALELIST
350
100A
  3
APPDATA
350
1006
  3
DWGPROPS
350
1051
  0
DICTIONARY
  5
D
102
{ACAD_REACTORS
330
C
102
}
330
C
100
AcDbDictionary
  0
RASTERVARIABLES
  5
1008
102
{ACAD_REACTORS
330
C
102
}
330
C
100
AcDbRasterVariables
 90
        0
 70
     1
 71
     1
 72
     0
  0
DICTIONARY
  5
17
102
{ACAD_REACTORS
330
C
102
}
330
C
100
AcDbDictionary
  3
STANDARD
350
18
  0
DICTIONARY
  5
100A
102
{ACAD_REACTORS
330
C
102
}
330
C
100
AcDbDictionary
  0
DICTIONARY
  5
1006
102
{ACAD_REACTORS
330
C
102
}
330
C
100
AcDbDictionary
  0
XRECORD
  5
1051
102
{ACAD_REACTORS
330
C
102
}
330
C
100
AcDbXrecord
  1
DWGPROPS COOKIE
  2

  3

  4

  6

  7

  8
tknk
  9

300
=
301
=
302
=
303
=
304
=
305
=
306
=
307
=
308
=
309
=
 40
0.0
 41
2456979.463199479
 42
2456979.471164063
  1

 90
        0
  0
MLINESTYLE
  5
18
102
{ACAD_REACTORS
330
17
102
}
330
17
100
AcDbMlineStyle
  2
Standard
 70
     0
  3

 62
   256
 51
90.0
 52
90.0
 71
     2
 49
0.5
 62
   256
  6
BYLAYER
 49
-0.5
 62
   256
  6
BYLAYER
  0
ENDSEC
  0
EOF
